Boston - More Than A Feeling Chords & Tabs

 

More Than A Feeling Chords & Tabs

Boston Chords & Tabs

Version: 1 Type: Bass Tab 1 rating
1 star 2 stars 3 stars 4 stars 5 stars
comments

More Than A Feeling Bass Tab

"MORE THAN A FEELING"
BY BOSTON
TABBED BY FRANKMAN

G---------------------------------------------------------------------
D-----------------------7-5-------------7-5-------------7-5-----------
A-5-0-3-2---5-0-3-2---5-----7-5-3-2---5-----7-5-3-2---5-----7-5-3-2---
E---------3---------3---------------3---------------3---------------3-

G---------------------------------------------------------------------
D---7-5---------7-7p9-7-5-7p5-----------------------------------------
A-5-----7-5-3-2---------------7-5-5-5-5-5-5-5-5-----3-3-7-7-7-7-7-5-5-
E-----------------------------------------------3-3-------------------

G-------------------------------------------------------------------
D-------------------------------------------------------------------
A-----3-3-7-7-7-7-7-5-5-----3-3-7-7-7-7-7-5-5-----3-3-7-7-7-7-7-5-5-
E-3-3-------------------3-3-------------------3-3-------------------

G-----------------------------------------------9-7-------------------
D-----------------------------------------7---------9-7-5-5-4-----5-7-
A-----3-3-7-7-7-7-7-5-5-----3-3-6-7-9-7-9---9-7---------------7-5-----
E-3-3-------------------3-3-------------------------------------------

G-5-4-----------------------------------------------------------
D-----5-----------7-5-------------7-5-------------7-5-----------
A-------5-3-2---5-----7-5-3-2---5-----7-5-3-2---5-----7-5-3-2---
E-------------3---------------3---------------3---------------3-

G-------7-----------------------------------------------------------------
D---7-9---9-7---------7-7---5-7p5-----------------------------------------
A-5-----------9-7-3-2-----7-------7-5-5-5-5-5-5-5-5-----3-3-7-7-7-7-7-5-5-
E---------------------------------------------------3-3-------------------
[ Tab from: http://www.guitartabs.cc/tabs/b/boston/more_than_a_feeling_btab.html ]
G-------------------------------------------------------------------
D-------------------------------------------------------------------
A-----3-3-7-7-7-7-7-5-5-----3-3-7-7-7-7-7-5-5-----3-3-7-7-7-7-7-5-5-
E-3-3-------------------3-3-------------------3-3-------------------

G-----------------------------------------------9-7---------------------
D-----------------------------------------7---------9-7-9-9-9-9-7-7-7-7-
A-----3-3-7-7-7-7-7-5-5-----3-3-6-7-9-7-9---9-7-------------------------
E-3-3-------------------3-3---------------------------------------------

G-------------------------------------------------
D-5-5-5-5-4-4-4-4-7-7-7-7-7-7-7-7-----------------
A-------------------------------------------------
E---------------------------------5-5-5-5-5-5-5-5-

                       GUITAR SOLO

G-----------------------------------------------------------------------------
D-------------------------------5-5-4-5-4-2-----5-5-9-9-9-7-7---------9-9-9-9-
A-5---5---5---------------4-5-5-------------5-5---------------5-5-5-5---------
E---5---7---2-2-2-2-2-5-7-----------------------------------------------------

G-----------------------------------------
D---------7-7-7-7-5-5-5-5-5-5-5-5-5-4----- pause here for guitar
A-7-7-7-7-----------------------------7-5- and vocal break
E-----------------------------------------

G-----------------------------------------------------------------------
D-----------------------------7-5-------------7-5---------------7-5-----
A-5-5-5-5-5-5-5-5-3-3-3-2-3-5-----7-5-3-2-3-5-----7-5-3-2-3-5-3-----7-5-
E-----------------------------------------------------------------------

G---------------------------------------------------------------------
D---------7-5---------7-7-7-7-5-5-------------------------------------
A-3-2-3-5-----7-5-3-2-------------2-3-5-5-5-5-5-5-5-5-5-5-5-5-5-5-5-5-
E---------------------------------------------------------------------
     play this untill the end of the song
G-----------------------
D-----------------------
A-----3-3-7-7-7-7-7-5-5-
E-3-3-------------------


Comments