Boston - Livin For You Chords & Tabs

 

Livin For You Chords & Tabs

Boston Chords & Tabs

Version: 1 Type: Tab 0 ratings
1 star 2 stars 3 stars 4 stars 5 stars
comments

Livin For You Tab

                     LIVIN FOR YOU:BOSTON
 THERE ISNT REALLY ANY PULLOFS OR TECHNIQUES IN THIS SONG 
 IT SHOULD BE VERY SIMPLE.
 10/PALM MUTE
 X /PALM MUTE THE 10
 Intro:play about 10 times 
[ Tab from: http://www.guitartabs.cc/tabs/b/boston/livin_for_you_tab.html ]
E-------------------------------------------------------------
B-------------------------------------------------------------
G-------------------------------------------------------XXXXXX
D-------10-12-10---------10-12-10--------10-12-10-------101010
A----10----------10---10----------10---10---------10----101010
E--8----------------8----------------8---------------8--8-8-8-

Main Solo:LET THE NOTES RING AT A SLOW TEMPO
E---------------------------------------------------19-20
B--------------------------------------------------------
G--16-17-17-16-17-17-16-17-17-17-17-16-16-17-17-16------- 
D--------------------------------------------------------
A--------------------------------------------------------
E--------------------------------------------------------

SUBMITTED BY : SPITFIRERB76@AOL.COM EMAIL FOR QUESTIONS
Comments