Boston - I Had A Good Time Chords & Tabs

 

I Had A Good Time Chords & Tabs

Boston Chords & Tabs

Version: 1 Type: Tab 0 ratings
1 star 2 stars 3 stars 4 stars 5 stars
comments

I Had A Good Time Tab

THIS IS BASICLY A 5-NOTE SONG WITH THE EXCEPTION OF MAYBE 4 NOTES IN THE SOLO. 
[ Tab from: http://www.guitartabs.cc/tabs/b/boston/i_had_a_good_time_tab.html ]
e------------------------------------------------------------------------------ 
b------------------------------------------------------------------------------ 
g------------------------------------------------------------------------------ 
D-5--6---7-------------5--6---7---------------------5--6---7-------------------
A------------8--------------------8--7--7--7--7--8-------------8---------------
E------------------------------------------------------------------------------

e------------------------------------------------------------------------------ 
b------------------------------------------------------------------------------
g------------------------------------------------------------------------------
D-5--6---7---------------------------------------------------------------------
A------------8--7--7--7--7--8--------------------------------------------------
E------------------------------------------------------------------------------
Comments