Borgir Dimmu - Burn In Hell Chords & Tabs

 

Burn In Hell Chords & Tabs

Borgir Dimmu Chords & Tabs

Version: 1 Type: Tab 0 ratings
1 star 2 stars 3 stars 4 stars 5 stars
comments

Burn In Hell Tab

 Dimmu Borgir - Burn in Hell (Tiwsted Sister Cover)
 Tabbed by: Brian Shaw (yo_yo65@hotmail.com)

 Ok I searched all over for these solos, and when i finally found them they were wrong.
 So I thought i'd tab them out myself. So here they are.
 Also, this i my first tab so email me with any mistakes, comments, ect.

 Notes:

 Listen to the song to see which guitar plays what.
 For the rest of the riffs, visit www.metaltabs.com 

 Key:
 ^ = bend up
 ~ = vibrato
 p = pull off
 h = hammer on


 Solo 1

 (O:16)
 E|---------------------------------------
 B|----12-8--12-10-12-13-12-13-15^-15-----
 G|-12--------------------------------17~-
 D|---------------------------------------
 A|---------------------------------------
 E|---------------------------------------

 (0:22)
 E|----------15-14-15--15-14-15-17-15-17-18^-18^-16------------
 B|-17-16-17------------------------------------------21-19-17-
 G|------------------------------------------------------------
 D|------------------------------------------------------------
 A|------------------------------------------------------------
 E|------------------------------------------------------------



 Solo 2

 (3:04)                                      play this 4 times
 E|-------------------------------------|-------------------------|
 B|-19-17-15-18-16-15-17-16-15-17-16-15-|-19p17p15----19p17p15----|
 G|-------------------------------------|----------19----------15-|
 D|-------------------------------------|-------------------------|
 A|-------------------------------------|-------------------------|
 E|-------------------------------------|-------------------------|
[ Tab from: http://www.guitartabs.cc/tabs/b/borgir_dimmu/burn_in_hell_tab.html ]
 (3:13) 
 E|-----------------------------------------------
 B|-19-17-15-19-17-15-19^-19^-19p18-17^-17^-17p16-
 G|-----------------------------------------------
 D|-----------------------------------------------
 A|-----------------------------------------------
 E|-----------------------------------------------

 (3:17)
 E|------------------------------------------------
 B|------------------------------------------------
 G|-15^----------------------15^-------------------
 D|-0---19-17-15-17p15-17p15-0---19-17-15-15h17-15-
 A|------------------------------------------------
 E|------------------------------------------------


 (3:21)
 E|-----------------------------------------------------
 B|-13^-13^-13^-13^-13^13^-15^-15^-15^-16^-16^-1616-19^-
 G|-----------------------------------------------------
 D|-----------------------------------------------------
 A|-----------------------------------------------------
 E|-----------------------------------------------------


 (3:26)
 E|------------------------------------------------
 B|------------------------------------------------
 G|-15^----------------------15^-------------------
 D|-0---19-17-15-17p15-17p15-0---19-17-15-15h17-15-
 A|------------------------------------------------
 E|------------------------------------------------


 (3:30)
 E|-------------------------------------------------------------------
 B|----------------------------------------------------17^-17^-17^----
 G|-17p15-15-14-13-12~-14p12-11-11-13p11-10-10-9-10-15----------------
 D|-------------------------------------------------------------------
 A|-------------------------------------------------------------------
 E|-------------------------------------------------------------------
Comments