Boom Desjardins - Chasse Gallerie Chords & Tabs

 

Chasse Gallerie Chords & Tabs

Boom Desjardins Chords & Tabs

Version: 1 Type: Bass Tab

Chasse Gallerie Bass Tab

   
Title: Chasse Gallerie	
Artist: Boom Desjardins
Album: Boom Desjardins
Tabber: Steph
Email: cyberbassist@hotmail.com

"...A force de rester dans la foret a s'ennuyer, le diable est venu les
tenter, il fallait deux semaines quand la glace s'était en aller, en canot
pour s'en retourner..."


c'était déja l'hiver....
        G    A    F#m Bm    G   A     Bm                                x2
G|-----------------------------------------------------------------------|
D|-----------------------------------------------------------------------|
A|--------------------2-222-----------2-22-2-22-2-2-2-2------------------|
E|------33---5-555-22-------33--5-555------------------------------------|

Le diable les guettant...
   Bb C   Dm G    Bb A  Dm                                              x2
G|-----------------------------------------------------------------------|
D|-----------------------------------------------------------------------|
A|-1--303--5----01-1h0--5-55-5-55-5-5-5-5--------------------------------|
E|-----------3-3---------------------------------------------------------|
[ Tab from: http://www.guitartabs.cc/tabs/b/boom_desjardins/chasse_gallerie_btab.html ]
Quand minuit sonnera...
   Bb  C     A   Dm      Bb  C      Dm                                  x3
G|-----------------------------------------------------------------------|
D|-----------------------------------------------------------------------|
A|-11--3-333-----5-555---11--3-333--5-55-5-55-5-5-5-5--------------------|
E|-----------55----------------------------------------------------------|

Le canot s'éleva...
   G  A       Bm  E      G  F#m Bm                                      X2
G|-----------------------------------------------------------------------|
D|-----------------------------------------------------------------------|
A|-----------------------------2-222-222-222-2---------------------------|
E|-33-5-555---77--0-000--33-22-------------------------------------------|

Posant le pied...
        G    A    F#m Bm    G  A      Bm                                X2
G|-----------------------------------------------------------------------|
D|-----------------------------------------------------------------------|
A|--------------------2-222-----------2-22-2-22-2-2-2-2------------------|
E|------33---5-555-22-------33--5-555------------------------------------|

Le plus jeune d'entre eux...

   Bb C    Dm G  Bb A  Dm                                               3x
G|-----------------------------------------------------------------------|
D|-----------------------------------------------------------------------|
A|-1--303--5----01-1H0--5-55-5-55-5-5-5-5--------------------------------|
E|-----------3-3---------------------------------------------------------|

J'ai pas tout mis les "fills" je vous laisse les accords pour pouvoir
groover dans la gamme mais , en gros, c'est la structure de la chanson

Si vous avez une version complète email moi SVP

cyberbassist
EnJOy!

http://www.boomdesjardins.com/index.html