Booker T And The Mgs - Green Onions Chords & Tabs

 

Green Onions Chords & Tabs

Booker T And The Mgs Chords & Tabs

Version: 2 Type: Tab 0 ratings
1 star 2 stars 3 stars 4 stars 5 stars
comments

Green Onions Tab

-------------------------------------------------------------------------------
			     Green Onions - Booker T and the MGs
-------------------------------------------------------------------------------
Tabbed by:sparrow_35
Email:theblessedhellride@hotmail.com

Tuning:standard

v-downstroke    | x  Mute note
^-upstroke

Riff 1  x4
e|--------------------------------------------------------------------------|
B|--------------------------------------------------------------------------|
G|---------1---3-1----------------------------------------------------------|
D|-3-3--x--1---3-1----------------------------------------------------------|
A|-3-3--x-------------------------------------------------------------------|
E|-1-1--x-------------------------------------------------------------------|   v ^    ^ 
 v ^


Riff 2 x2
e|--------------------------------------------------------------------------|
B|--------------------------------------------------------------------------|
G|---------6---8-6----------------------------------------------------------|
D|-8-8--x--6---8-6----------------------------------------------------------|
A|-8-8--x-------------------------------------------------------------------|
E|-6-6--x-------------------------------------------------------------------|
   v ^     ^   v ^

Riff 1 x2
e|--------------------------------------------------------------------------|
B|--------------------------------------------------------------------------|
G|---------1---3-1----------------------------------------------------------|
D|-3-3--x--1---3-1----------------------------------------------------------|
A|-3-3--x-------------------------------------------------------------------|
E|-1-1--x-------------------------------------------------------------------|
   v ^     ^   v ^
[ Tab from: http://www.guitartabs.cc/tabs/b/booker_t_and_the_mgs/green_onions_tab_ver_2.html ]
Riff 3 x1
e|--------------------------------------------------------------------------|
B|--------------------------------------------------------------------------|
G|-----------8---10-8-------------------------------------------------------|
D|-10-10--x--8---10-8-------------------------------------------------------|
A|-10-10--x-----------------------------------------------------------------|
E|--8--8--x-----------------------------------------------------------------|
    v  ^     ^    v ^

Riff 2 x1
e|--------------------------------------------------------------------------|
B|--------------------------------------------------------------------------|
G|---------6---8-6----------------------------------------------------------|
D|-8-8--x--6---8-6----------------------------------------------------------|
A|-8-8--x-------------------------------------------------------------------|
E|-6-6--x-------------------------------------------------------------------|
   v ^     ^   v ^

Riff 1 x1
e|--------------------------------------------------------------------------|
B|--------------------------------------------------------------------------|
G|---------1---3-1----------------------------------------------------------|
D|-3-3--x--1---3-1----------------------------------------------------------|
A|-3-3--x-------------------------------------------------------------------|
E|-1-1--x-------------------------------------------------------------------|
   v ^     ^   v ^

Riff 4 x1
e|--------------------------------------------------------------------------|
B|--------------------------------------------------------------------------|
G|--------------------------------------------------------------------------|
D|-3-3-3-3-3-3-3-3----------------------------------------------------------|
A|-3-3-3-3-3-3-3-3----------------------------------------------------------|
E|-1-1-1-1-1-1-1-1----------------------------------------------------------|
   v ^ v ^ v ^ v ^


After Riff 4 continue right  back into Riff 1.  Repeat the song until tired, and throw 
a solo or two wherever youd like. This is a great tune to jam too.

| x  Mute note
===============================================================================
Comments