Booker T And The Mgs - Green Onions Chords & Tabs

 

Green Onions Chords & Tabs

Booker T And The Mgs Chords & Tabs

Version: 7 Type: Bass Tab 0 ratings
1 star 2 stars 3 stars 4 stars 5 stars
comments

Green Onions Bass Tab

   
-----------------------------------------------------------------------------
	            Green Onions - Booker T And The MG's
-----------------------------------------------------------------------------

Tabbed By : Alex D.
e-mail: axleskate@gmail.com

Riff #1
G|----------------|
D|----------------|
A|--------8-10-8--|
E|--10-10---------|

Riff #2
G|----------------|
D|--------8-10-8--|
A|--10-10---------|
E|----------------|
[ Tab from: http://www.guitartabs.cc/tabs/b/booker_t_and_the_mgs/green_onions_btab_ver_7.html ]
Riff #3
G|------------------|
D|--------10-12-10--|
A|--12-12-----------|
E|------------------|

Do Riff #1 - 4x
Do Riff #2 - 2x
Do Riff #1 - 2x
Do Riff #3 - 1x
Do Riff #2 - 1x
Do Riff #1 - 2x

When you end, you can repeat....

Do #3 - 1x
Do #2 - 1x
Do #1 - 2x

But instead of doing Riff #1, 2 times, do it once, then end on the D (on the E string)


| /  slide up
| \  slide down
| h  hammer-on
| p  pull-off
| ~  vibrato
| +  harmonic
| x  Mute note
=============================================================================
Comments