Booker T And The Mgs - Green Onions Chords & Tabs

 

Green Onions Chords & Tabs

Booker T And The Mgs Chords & Tabs

Version: 2 Type: Bass Tab 0 ratings
1 star 2 stars 3 stars 4 stars 5 stars
comments

Green Onions Bass Tab

   
All those other tabs didn't get those basic riffs. It sounds right.


A)   X4

G----------------------
D----------------------
A-----------1----------
E---1--1--4---4--------


B)   x2
[ Tab from: http://www.guitartabs.cc/tabs/b/booker_t_and_the_mgs/green_onions_btab_ver_2.html ]
G----------------------
D-----------1----------
A---1--1--4---4--------
E----------------------


C)   I can't figure this out, but it's a variation of the riff or in a
     different key


its really simple
Comments