Booker T And The Mgs - Green Onion Chords & Tabs

 

Green Onion Chords & Tabs

Booker T And The Mgs Chords & Tabs

Version: 1 Type: Tab 0 ratings
1 star 2 stars 3 stars 4 stars 5 stars
comments

Green Onion Tab

-----------------------------------------------------------------------------
                   Green Onions Tab by Booker T And The MGs
-----------------------------------------------------------------------------

Tabbed By: Alex Miller
Email Adress: Ram13093@aol.com

Tuning: Standard

Riff 1
e|------------|
B|------------| Play 4x
G|-------1-3--|
D|-3-3-3-1-3--|
A|-3-3-3------|
E|-1-1-1------|
[ Tab from: http://www.guitartabs.cc/tabs/b/booker_t_and_the_mgs/green_onion_tab.html ]
Riff 2
e|------------|
B|-------2-4--| Play 4x
G|-3-3-3-1-3--|
D|-3-3-3------|
A|-1-1-1------|
E|------------|

Riff 3
e|-------------------------------------------|
B|-------4-6-------2-4-----------------------|
G|-5-5-5-3-5-3-3-3-1-3-------1-3--------1-3--|
D|-5-5-5-----3-3-3-----3-3-3-1-3--3-3-3-1-3--|
A|-3-3-3-----1-1-1-----3-3-3------3-3-3------|
E|---------------------1-1-1------1-1-1------|

There you go. The song is basiclly those same three riffs over and over again.
It's a really fun song to jam to.

Symbols:
h=hammer on
p=pull off
/=slide up
\=slide down
x=mute note
+=harmonics
~=vibrato
Comments