Boney Nem - Words Chords & Tabs

 

Words Chords & Tabs

Boney Nem Chords & Tabs

Version: 1 Type: Tab 0 ratings
1 star 2 stars 3 stars 4 stars 5 stars
comments

Words Tab

   
#----------------------------------PLEASE NOTE---------------------------------#
#This file is the author's own work and represents their interpretation of the #
#song. You may only use this file for private study, scholarship, or research. #
#------------------------------------------------------------------------------#
Transcribed by: Radchenko Konstantin
e-mail: kostarv@yahoo.com

Band: Boney ‘NEM
Song: Words
 
Standard tuning E


____ don't come easy to me  
 How can I find ­­­___

Intro
Gtr 1 and Gtr 2

        ­­­___ a way ____                                                          Words ...

||------------------------------------------------------------------------------------|
||------------------------------------------------------------------------------------|
||------------------------------------------------------------------------------------|
||----------------------------------5----5--5----------------------------5----5--5----|
||-----5-5-5-5-5-5-5-5-5-5-5-5-5----3----3--7-5-5-5-5-5-5-5-5-5-5-5-5----3----3--7----|
||------------------------------------------------------------------------------------|
p.m.   . . . . . . . . . . . . .              . . . . . . . . . . . .


Gtr 1 and Gtr 2

                          ___ don't come easy     ___  to me  ___
|-------------------------------------------------------------------------------|
|-------------------------------------------------------------------------------|
|-------------------------------------------------------------------------------|
|----------------------------------------5-5-5-5-5-5-5-5------------------------|
|-----5-5-5-5-5-5--4-4--2-2-2-2-2-2-2-2-------------------4-4-4-4-4-4-4-4-------|
|-------------------------------------------------------------------------------|
p.m.  . . . . . .  . .  . . . . . . . .  . . . . . . . .  . . . . . . . .


Gtr 1 and Gtr 2

___ This is the only    way ___    ___ For me to say " I love you "  Words don't 
|------------------------------------------------------------------------------|
|------------------------------------------------------------------------------|
|------------------------------------------------------------------------------|
|------7-7-7-7-7-7-7-7---------------------------------------------------------|
|-----------------------6-6-6-6-6-6-6-6--7-7-7-7-7-7-7-7--0-0-0-0-0-0-0-0------|
|------------------------------------------------------------------------------|
p.m.   . . . . . . . .  . . . . . . . .  . . . . . . . .  . . . . . . . .


Gtr 1 and Gtr 2

     _____ come easy 
|----------------------------------------------||
|----------------------------------------------||
|----------------------------------------------||
|------------------7-7-7-7-7-------------------||
|------5-5-5-5-5-5-5-5-5-5-5-----5---7---------||
|--------------------------------3---5---------||
p.m.   . . . . . .
 

Riff A

Gtr 1 and Gtr 2

  ­­­­_____ Words                  don't come easy       to me
||---------------------------------------------------------------------------|
||---------------------------------------------------------------------------|
||------------------------------------7-----7-----7--------------------------|
||-------7-----7------6----4-----4----5-5-5-5-5-5-5-5--6-----6-----6---------|
||-------5-5-5-5-5-5--4-4--2-2-2-2-2-------------------4-4-4-4-4-4-4-4-------|
||---------------------------------------------------------------------------|
|p.m.      . .   . .    .    . .   .    . .   . .   .    . .   . .   .       |
|                                                                            |
Keyboards                                                                    |
||-------------0------2-----------------------3-----2------0-----------------|
||-------------------------3-------------------------------------------------|
||---------------------------------------------------------------------------|
||---------------------------------------------------------------------------|
||---------------------------------------------------------------------------|
||---------------------------------------------------------------------------|
 

Gtr 1 and Gtr 2

__ This is the only way   For me to say " I love you "    Words don't come easy
|--------------------------------------------------------------------------------------------|
|--------------------------------------------------------------------------------------------|
|----9-(9)-----------------------------------------------------------------------------------|
|----7-(7)-----8-----8-----8----9-----9-----9----2-----2-----2----7-----7-----7---7----------|
|--------------6-6-6-6-6-6-6-6--7-7-7-7-7-7-7-7--0-0-0-0-0-0-0-0--5-5-5-5-5-5-5-5-5-5-5-5----|
|--------------------------------------------------------------------------------------------|
|p.m.            . .   . .   .    . .   . .   .    . .   . .   .    . .   . .   .   . . .    |
|                                                                                            |
Keyboards                                                                                    |
|-------------------------------------3-----2-----0------------------------------------------|
|--------------------------------------------------------------------------------------------|
|--------------------------------------------------------------------------------------------|
|--------------------------------------------------------------------------------------------|
|--------------------------------------------------------------------------------------------|
|--------------------------------------------------------------------------------------------|
 

Gtr 1 and Gtr 2
|-----------------------||
|-----------------------||
|-----------------------||
|-----------------------||
|---------5----7--------||
|---------3----5--------||
|                        |
Keyboards                |
|-----------------------||
|-----------------------||
|-----------------------||
|-----------------------||
|-----------------------||
|-----------------------||

 
Riff B

Gtr 1 and Gtr 2

____ Well, I'm just a music man   ___  Melodies of all my best friend  __
||-------------------------------------------------------------------------------|
||-------------------------------------------------------------------------------|
||-------------------------------------------------------------------------------|
||-----------------------7-----7-----7/9--------------------7-----------7--6-----|
||-----7-----7-----7-----5-555-5-555-5/7--7-----7-----7-----5-5-5-5-5---5--4-----|
||-----5-555-5-555-5-55-------------------5-555-5-555-5-55-----------------------|
p.m.     ...   ...   ..    ...   ...        ...   ...   ..    . . . .
 

Gtr 1 and Gtr 2

But my words are coming along and I _ I reveal my heart to you and hope that 
|---------------------------------------------------------------------------|
|---------------------------------------------------------------------------|
|-----------------------6------6--6---7------7-----7/9--7-----7—-7\---------|
|-----4------4-----4/---4---4--4--4---5---5--5--5—-5/7--5--5--5—-5\---------|
|-----2---2--2--2—-2/-------------------------------------------------------|
|---------------------------------------------------------------------------|
p.m.      .     .           .             .     .          .

 
Gtr 1 and Gtr 2

    ___you believe   ___ its true
|------------------------------------------------||
|------------------------------------------------||
|-----------------5-7----------------7-9---------||
|-----------5-7-8-------------7-9-10-------------||
|-----5-7-8------------7-9-10--------------------||
|------------------------------------------------||
p.m.  . . . . . . . .  . . .  . . .  . .

 

 

Riff C

Gtr 1 and Gtr 2
[ Tab from: http://www.guitartabs.cc/tabs/b/boney_nem/words_tab.html ]
  ­­­­___But  Words                  don't come easy       to me
||---------------------------------------------------------------------------|
||---------------------------------------------------------------------------|
||------------------------------------7-----7-----6--------------------------|
||-------7-----7------6----4-----4----5-5-5-5-5-5-4-4--6-----6-----6---------|
||-------5-5-5-5-5-5--4-4--2-2-2-2-2-------------------4-4-4-4-4-4-4-4-------|
||---------------------------------------------------------------------------|
|p.m.      . .   . .    .    . .   .    . .   . .   .    . .   . .   .       |
|                                                                            |
Keyboards                                                                    |
||-------------0------2-----------------------3-----2------0-----------------|
||-------------------------3-------------------------------------------------|
||---------------------------------------------------------------------------|
||---------------------------------------------------------------------------|
||---------------------------------------------------------------------------|
||---------------------------------------------------------------------------|
 

Gtr 1 and Gtr 2
__ How can I find a way      to make you see I love you   Words don't come easy
|--------------------------------------------------------------------------------------------|
|--------------------------------------------------------------------------------------------|
|----9-(9)-9---------------------------------------------------------------------------------|
|----7-(7)-6---8-----8-----8----9-----9-----9----2-----2-----2----7-----7-----7---7----------|
|--------------6-6-6-6-6-6-6-6--7-7-7-7-7-7-7-7--0-0-0-0-0-0-0-0--5-5-5-5-5-5-5-5-5-5-5-5----|
|--------------------------------------------------------------------------------------------|
|p.m.            . .   . .   .    . .   . .   .    . .   . .   .    . .   . .   .   . . .    |
|                                                                                            |
Keyboards                                                                                    |
|-------------------------------------3-----2-----0------------------------------------------|
|--------------------------------------------------------------------------------------------|
|--------------------------------------------------------------------------------------------|
|--------------------------------------------------------------------------------------------|
|--------------------------------------------------------------------------------------------|
|--------------------------------------------------------------------------------------------|

 
Gtr 1 and Gtr 2

  ____ This is 
|-----------------------||
|-----------------------||
|-----------------------||
|-----------------------||
|---------5----7--------||
|---------3----5--------||
|                        |
Keyboards                |
|-----------------------||
|-----------------------||
|-----------------------||
|-----------------------||
|-----------------------||
|-----------------------||

 
Riff B

Gtr 1 and Gtr 2

____ just a   simple   song    ___  That I make for you   on my own __
||-------------------------------------------------------------------------------|
||-------------------------------------------------------------------------------|
||-------------------------------------------------------------------------------|
||-----------------------7-----7-----7/9--------------------7-----------7--6-----|
||-----7-----7-----7-----5-555-5-555-5/7--7-----7-----7-----5-5-5-5-5---5--4-----|
||-----5-555-5-555-5-55-------------------5-555-5-555-5-55-----------------------|
p.m.     ...   ...   ..    ...   ...        ...   ...   ..    . . . .

 

Gtr 1 and Gtr 2

There's no hidden meaning  You know when I  When I say "I love you, honey"  This believe
|---------------------------------------------------------------------------|
|---------------------------------------------------------------------------|
|-----------------------6------6--6---7------7-----7/9--7-----7—-7\---------|
|-----4------4-----4/---4---4--4--4---5---5--5--5—-5/7--5--5--5—-5\---------|
|-----2---2--2--2—-2/-------------------------------------------------------|
|---------------------------------------------------------------------------|
p.m.      .     .           .             .     .          .

 
Gtr 1 and Gtr 2

    ___ are really       do
|------------------------------------------------||
|------------------------------------------------||
|-----------------5-7----------------7-9---------||
|-----------5-7-8-------------7-9-10-------------||
|-----5-7-8------------7-9-10--------------------||
|------------------------------------------------||
p.m.  . . . . . . . .  . . .  . . .  . .

 

Riff D

Gtr 1

__Words, words don't come easy ...
||----------------------------------||
||*--------------------------------*||
||----------------------------------||  x 32 times, I think...
||----------------------------------||
||*------7-------------------------*||
||-------5-55-----------------------||
|p.m.      ..                        |
|                                    |
Gtr 2 (lead)                         |
||----------------------------------||
||----------------------------------||
||-----------?----------------------||
||----------------------------------||
||----------------------------------||
||----------------------------------||

 

Riff C x 1 (ρλξβΰ ρ Riff B)
 

Solo

Gtr 1

 ____ come easy                                         ___easy come easy __
||------------------------------------------------10-(10)~---10-9-7------------------|
||----/3-(3)~-----6—6fb--5-(5)~---5-(5)~---8--10-------------------------------------|
||-------------------------------------------------------------------7h9p7-(7)~------|
||-----------------------------------------------------------------------------------|
||-----------------------------------------------------------------------------------|
||-----------------------------------------------------------------------------------|
|                                                                                    |
Gtr 2                                                                                |
||-----------------------------------------------------------------------------------|
||-----------------------------------------------------------------------------------|
||-----------------------------------------------------------------------------------|
||-----------------------------------------------------------------------------------|
||-----------------------------------------------------------------------------------|
||-----------------------------------------------------------------------------------|

 

Gtr 1

    ­­­____ Words don't come easy __
|---------------------------------9halfb\----------------||
|--------------------------------10fullb\----------------||
|------/11--9--7---9fbp7-(7)~----------------------------||
|--------------------------------------------------------||
|--------------------------------------------------------||
|--------------------------------------------------------||
|                                                         |
Gtr 2                                                     |
|--------------------------------------------------------||
|--------------------------------------------------------||
|--------------------------------------------------------||
|--------------------------------------------------------||
|--------------------------------------------------------||
|--------------------------------------------------------||

 

Riff C x 2 (words with Riff B and Riff C)

 

Riff E

Gtr 1 and Gtr 2

         come easy                don't come easy       to me      This is the
||-----------------------------------------------------------------------------|
||*----------------------------------------------------------------------------|
||------------------------------------7-----7-----6----------------------------|
||-------7-----7-----6-----4-----4----5-555-5-555-4-44--6-----6-----6----------|
||*------5-555-5-55--4-44--2-222-2-22-------------------4-444-4-444-4-44-------|
||-----------------------------------------------------------------------------|
 p.m.      ...   ..    ..    ...   ..   ...   ...   ..    ...   ...   ..

                                                                      
Gtr 1 and Gtr 2

only    way      For me to say " I love you "    Words don't come easy   x2
|-------------------------------------------------------------------------||
|------------------------------------------------------------------------*||
|----9-(9)--9-------------------------------------------------------------||  fading out...
|----7-(7)--6--8-----8-----8-----9-----9-----9-----2-----2-----2----------||
|--------------6-666-6-666-6-66--7-777-7-777-7-77--0-000-0-000-0-00------*||
|-------------------------------------------------------------------------||
p.m.             ...   ...   ..    ...   ...   ..    ...   ...   ..


End.
Comments