Boney M - Daddy Cool Chords & Tabs

 

Daddy Cool Chords & Tabs

Boney M Chords & Tabs

Version: 5 Type: Bass Tab

Daddy Cool Bass Tab

 E ----------------------------------------------------------|
 A -----------------------3--------333333---1--2-3-----------|
 D -33333-----3---11111-----3-4-0-------------------33333----|
 G -------1-0------------------------------------------------|
[ Tab from: http://www.guitartabs.cc/tabs/b/boney_m/daddy_cool_btab_ver_5.html ]
 E --------------------------------------------------|
 A ---1----------------------------------------------|
 D ------1-2-3---------------------------------------|
 G --------------------------------------------------|


I think this i write i didint hav a bass in front of me ven i did this so i vill korekt 
att son as possible