Bone Thugs N Harmony - Ecstasy Chords & Tabs

 

Ecstasy Chords & Tabs

Bone Thugs N Harmony Chords & Tabs

Version: 1 Type: Tab 0 ratings
1 star 2 stars 3 stars 4 stars 5 stars
comments

Ecstasy Tab

Verse
e---------------------------------------------------5---|
B-----------------9---9-----------------9---9---9---6---|
G------------12------12-------------12-----12--12---7---|
D-------12-----------12---------12---------12--12---7---|
A--10-----------------------10--------------------------|
E-------------------------------------------------------|
[ Tab from: http://www.guitartabs.cc/tabs/b/bone_thugs_n_harmony/ecstasy_tab.html ]
Solo-Guitar
e---5/10--10--8---------------------|
B------------------11--10--11--10---|
G-----------------------------------|
D-----------------------------------|
A-----------------------------------|
E-----------------------------------|

Bas
G------------------------------------------------------------------------|
D------------------------------------------------------------------------|
A-------------------------------------------3---3/5------3---5---3---5---|
E---3---5---6---5---6---3---5---6---5---6-------------5------------------|
Comments