Bondoc Jimmy - Let Me Be The One Chords & Tabs

 

Let Me Be The One Chords & Tabs

Bondoc Jimmy Chords & Tabs

Version: 3 Type: Tab 0 ratings
1 star 2 stars 3 stars 4 stars 5 stars
comments

Let Me Be The One Tab

   
TRANSCRIBED BY: Ronald S. Urcia
SUBJECT: Tab; Let me be the one (Acoustic)by Jimmy Bondoc
Email ADDRESS: r_urcia@yahoo.com
STANDARD TUNING: EADGBE
LEGENDS: ^ upstroke
         v downstroke
         / slide
         h hammer-on
         stacatto

INTRO:            

E----------12------12-------7----9-9-------7-9--9------------9-------
B-----10-------10------10--------------10----10-10--10---12----------
G-------9------------------------------------------------------------
D--------------------------------------------------------------------
A--------------------------------------------------------------------
E----------10---------------9--------------7-------------9-----------

                                                    E pause
E----------12------12-------7----9-7----------------0-------
B-----10-------10------10--------------10/5---------5-------
G--------9----------------------------------7-------4-------
D-----------------------------------------4---------6-------
A-----------------------------------------5---------7-------
E----------10---------------9-----------------------0-------

    				      ^ hit it upstroke
E-------------------------------------0---I
B------------2-------------2----------5---I
G---------2h4--4--------2h4---4--2----2---I
D-------2-------------2-------------------I
A----0-------------0----------------------I
E-----------------------------------------I
                  v  ^ v
E-----------------------------------------I
B------------2----2-2---2-2-------2-------I
G---------2h4--4--2-2---2-2----2h4--4-----I
D-------2---------2-2---2-2--2------------I
A----0--------------------0---------------I
E-----------------------------------------I

[ Tab from: http://www.guitartabs.cc/tabs/b/bondoc_jimmy/let_me_be_the_one_tab_ver_3.html ]
VERSE 1:
RIFF 1
         V with tap   somebody told me you're unhappy..
E-----------------   ---------------
B--------2-5---5--   -----2------5--
G--------4-2---2--   -----4---------
D--------2-0---0--   -----2-0-------
A----0---0--------   --0--0---------
E-----------------   ---------------

                 somebody..don't want me no more...ohhh..
E------------------------------------------------5--0--
B----5---2----2---5--5------------2-----3-3--2h3----5--
G----4-4-2-2h4----2--2----------2-------4-4---------4--
D----6---4------0-------------2---------4-4---------6--
A----4---4-----------------4----------2---2---------7--
E--------2---------------------------------------------


VERSE 2:
      Nobody told me...              fell out.... free...  						E------------    ---4--2--------------4-2-2--   ---------------
B------2--5--    ---5--2-----5---5-5--5-2-3--   ---------5--7--
G------2--2--    ---4--3--2h4----2-2--4-2-4--   -------4----4--
D------2--0--    ---6--4---------0-0--6-4-4--   -----6------6--
A----0-------    ---4--4--------------4-4-2--   ---0--------4--
E------------    ------2----------------2----   ---------------


CHORUS: 

Just use this chords.. tinatamad na ako mangapa!

D-C#m-Bm-A9
D9-C#m-Bm-A9
D9-C#m-F#m-B-Bm-A/C#-Bm
And goodbye....

INTRO:
VERSE:

...goodbye

BRIDGE: Not yet finished.I'm really tired na. Don't worry guys i will
        fix it if i had a time anyway this is my first transciption
        kung meron akong bagong kapa na ibang kanta i will share it 
        to everyone just email me here's mine r_urcia@yahoo.com or i text
        nyo na lang ako.tnxs....


Comments