Bondoc Jimmy - Let Me Be The One Chords & Tabs

 

Let Me Be The One Chords & Tabs

Bondoc Jimmy Chords & Tabs

Version: 2 Type: Tab 0 ratings
1 star 2 stars 3 stars 4 stars 5 stars
comments

Let Me Be The One Tab

   
JIMMY BONDOC
LET ME BE THE ONE (acoustic version)

tabbed by: jomar B.

this is the perfect song for the broken hearted...
(this used to be my anthem... hehe)


don't expect this song 2b perfect.. coz im only 16.. from cavite, philippines
comments&suggestions are always welcome... mail me @ >> ppllggzz@yahoo.com (add me sa friendster!) hehe


INTRO:

|----------12------12--------7---9--9-------7---9---9-------7---9-|
|---10---------10-------10-------------10---------------10--------|
|------9----------------------------------------------------------|
|-----------------------------------------------------------------|(2x)
|-----------------------------------------------------------------|
|----------10----------------9--------------9---------------9-----|


Misc Riff:
(originally a Asus4 and a D9 combo)
|--------------------------------|
|--0------0---0h2--0-------------|
|--2---2-------------------------|
|--------------------------------|(after intro 2x)
|--0-----------------------------|
|--------------------------------|

Verse:

Asus4			    D9		   (misc riff)
Somebody told me you were leaving.. i didn't know
Asus4			   D9		    C#m7     F#m7
Somebody told me you're unhappy .. but it doesn't show
D			   C#m7	     Bm7      F#m7
Somebody told me that you don't want me no more.. 
			    D
So you're walking out that door
[ Tab from: http://www.guitartabs.cc/tabs/b/bondoc_jimmy/let_me_be_the_one_tab_ver_2.html ]
(repeat chord pattern)
Nobody told me you've been crying every night
nobody told me you've been dying but didn't want to fight
nobody told me you fell out of love for me
		   Asus4-D9
So im setting you free

Chorus:
       D	      C#m7
Let me be the one to break it up
	      Bm7 	     Asus4
So you won't have to make excuses
	  D9		 C#m7		     Bm7	     Asus4
We don't need to find a setup where someone wins and someone loses
	 D9              C#m7                 Bm7          Asus4
We just have to say our love was true but has now become a lie
	D9	     C#m7    Bm7	F#m7		Asus-D9 (intro)
So im telling you i love you one last time... and goodbye 

(optional thingy: done on the acoustic version of the song)

|------------5---------------|
|------3/4---5----43----32-|
|------4/5--------54----43-|
|----------------------------|
|----------------------------|
|----------------------------|

Verse2:
(do same chord pattern as 1st verse)
Somebody told me you used to love me.. i don't know why
Nobody told me that you only needed time to fly..
Somebody told me that you want to come back when.. 
our love is real again..
(chorus)
then intro(used as a solo)

I KNOW IT'S NOT 100% CORRECT.. SO FEEL FREE TO MAIL ME FOR CORRECTIONS.. d:-)

basta kung feel nyo ako itext.. e2 number ko.. +639198368415 pasaload muna bago txt.. hehe :D

jomar b. po.. batang pilipino... dugong pilipino.. iboto nyo ako.... :D



Comments