Bon Jovi - Wanted Dead Or Alive Solo Chords & Tabs

 

Wanted Dead Or Alive Solo Chords & Tabs

Bon Jovi Chords & Tabs

Version: 1 Type: Tab 0 ratings
1 star 2 stars 3 stars 4 stars 5 stars
comments

Wanted Dead Or Alive Solo Tab

   
------------------------------------------------
| WANTED DEAD OR ALIVE SOLO: by Richie Sambora |
------------------------------------------------



FOR THIS SOLO JUST CRANK YOUR AMP UP ALL THE WAY AND TRY TO SQUELL OUT EVERY HARMONIC
AND BEND THE STRINGS LIKE CRAZY, LISTEN TO HOW RICHIE PLAYS IT AND YOU WILL SEE WHAT
I AM TALKING ABOUT. HES DAMN GOOD TOO...



e:---------------------------------------------------------13-15--15b7-15b7-13-15b7---------------------------------------------|
B:----------------------------------------------------13-15---------------------------------------------------------------------|
G:-----------------------------------------------12-14---------------------------------12b14*-12--------------------------------|
D:-x\--7\5/7--7-5/7--7/5----3-5b7-5b7*-5b7-5b7-3--------------------------------------------------------------------------------|
A:-x\--5\3/7--5-3/5--5/3--------------------------------------------------------------------------------------------------------|
E:------------------------------------------------------------------------------------------------------------------------------|
                                p.h.*                    (bend the shit out of em')     p.h.


[ Tab from: http://www.guitartabs.cc/tabs/b/bon_jovi/wanted_dead_or_alive_solo_tab.html ]
e:--------------------------------------------------------------------------------------------------------------------------------|
B:--------------------------------------------------------------------------------------------------13----------------13----------|
G:-----------------------------------------------------------------------------------------10-12b14----14b12-10--12b14---14b12-10-|
D:--10---------5/5---------3------------3--5--5b7--7b5--3---0-3p0--0-3--5b7-5b7-------10h12---------------------------------------|
A:---8-0--5\3--3/7----3--5---5--0--3--5---------------------------3---------------------------------------------------------------|
E:--------------------------------------------------------------------------------------------------------------------------------|
                  p.m.---(p.h.)----------| p.h. p.h.       p.m.-------| p.h. p.h. 


e:------------------------------------------|
B:------------------------------------------|
G:------------------------------------------|
D:--12---10---7---5/7-----------------------|
A:--10-0--8-0-5-0-3/5-----------------------|
E:------------------------------------------|


P.H.=PICK HARMONIC
P.M.=PALM MUTE
b=BEND
/=SLIDE UP
\=SLIDE DOWN



THERE ARE ALREADY ALOT OF DEAD OR ALIVE SOLOS OUT THERE THAT ARE PRETTY GOOD SO IF YOU DONT LIKE THIS ONE THEN 
POST YOUR OWN.

-dR_fEELGoOD
Comments