Bon Jovi - Undivided Chords & Tabs

 

Undivided Chords & Tabs

Bon Jovi Chords & Tabs

Version: 1 Type: Tab 0 ratings
1 star 2 stars 3 stars 4 stars 5 stars
comments

Undivided Tab

   
Undivided - Bon Jovi



Drop-D tuning throughout

Intro

Heavy Distortion

Palm Muting

E-----------------------------------
B-----------------------------------
G-----------------------------------
D-----------------------------------
A--0-0-2-3-0-0-2-3---0-2-3-0-0-2-3--	repeat until pre-chorus
D--0-0-2-3-0-0-2-3---0-2-3-0-0-2-3--

Pre-chorus

E----------------------------------------------------------------
B----------------------------------------------------------------
G----------------------------------------------------------------
D--5-5-x-5-5-x-5-5-x-5-5-x-5---5----8-8-x-8-8-x-8-8-x-8-8-x-8---8
A--5-5-x-5-5-x-5-5-x-5-5-x-5---5----8-8-x-8-8-x-8-8-x-8-8-x-8---8
D--5-5-x-5-5-x-5-5-x-5-5-x-5---5----8-8-x-8-8-x-8-8-x-8-8-x-8---8

Chorus

Chords: D	       Bb	       F	      C

E-------0--------------------------------------------------------
B-------3--------------------------------------------------------
G-------2--------------3------------------------------5----------
D-------0--------------3---------------3--------------5----------
A----------------------1---------------3--------------3----------
D--------------------------------------3-------------------------

Background fill with each chord
[ Tab from: http://www.guitartabs.cc/tabs/b/bon_jovi/undivided_tab.html ]
E-----------------------------
B-----------------------------
G-----7-5-5-7-----7-5-5-7-----
D-----------------------------
A-----------------------------
D-----------------------------

Verse 2 and pre-chorus as above (omit the Bb in the pre-chorus though)

Guitar solo

E-------------------------------------------------------------------------------
B-------------------------------------------------------------------------------
G-----------------------------------10-12(b13)(p10)-----------------------------
D------10(h)12-12-10-12-10-12-10-12----------------12-10-10--------5-5(b6)(p3)-5
A-------------------------------------------------------------------------------
D-------------------------------------------------------------------------------

Bend the 2nd string up and down gradually as you play the below position. Richie bends
the pattern three times and cuts it off midway through the third bend before going on to
the next section.

E---10-
B---13-
G------
D------
A------
D------


E------------------------------------------------------------------
B----------13------------------------------------------------------
G---12(b13)--(pbr13)12(p10)--10-12--------10(h12)(p10)\9-----------
D--------------------------12----------------------------12-10-12--
A------------------------------------------------------------------
D------------------------------------------------------------------

Then take it out to the finish with the palm muting then the chorus section repeated several times.

Probably not exact but damn close. Enjoy!
Comments