Bon Jovi - Say It Isn't So Chords & Tabs

 

Say It Isn't So Chords & Tabs

Bon Jovi Chords & Tabs

Version: 3 Type: Tab 0 ratings
1 star 2 stars 3 stars 4 stars 5 stars
comments

Say It Isn't So Tab

##################################################################################
# This file is the author's own work and represents their interpretation of the  #
# song. You may only use this file for private study, scholarship, or research.  #
##################################################################################

Say it isn't so

G5- X X 5 7 X XDadd11-  X 5 4 O X X       Em7-  X X O O O O 
D5- X 5 7 X X XD/F - X X 4 7 X X       Em6-  X 4 X O O O
C5-  X 3 5 X X XE5-   X X 2 4 X X
D-  X  X X 7 7 XAm/G-  3 X 2 2 1 O

Cadd-  X 3 2 O 3 OCm- X 3 5 5 4 3 
C*-  X X X 5 5 XEm-  X X 2 O O O
Am- X O 2 2 OEm ( maj7 )-  X X 1 O O O

There are 2 guitar parts for this song as Richie Plays most of it Jon comes in some parts. As Rich has a larger part to play I shall refer to his parts as Guitar 1 and Jon's as Guitar 2.

Intro

Guitar 2 G5D5C5
[ Tab from: http://www.guitartabs.cc/tabs/b/bon_jovi/say_it_isnt_so_tab_ver_3.html ]
Guitar 1(tab) --------------------------------------------------------------------------------------------------- 
       -------3------3------3-------------------3-------3------3-------------------------------------------------
       -------0------0------0-------------------0--------0-----0-------------------------------------------------
             ---------------------------4_h_5----------------------------4_h_5---------5-----------5-------------5
       --------------------------------------------------------------------------------3------------3-----------3


Guitar 2G5D             Cadd9

Guitar 1 (tab )----------------------------------------------------------------0
       8-------8-------8---------7---7---7---7---7---7---7---------3------------
       7-------7-------7---------7---7---7---7---7---7---7---------0------------
       -----------------------------------------------------------------0-------
       -----------------------------------------------------------------2-------
       -------------------------------------------------------------------------3

Verse 2 ( same chords as previous verses )


Chorus ( same chords )

Instrumentle

EmEm(maj7)Em7Em6

EmEm(maj7)Em7Em6

Chorus until end

(That little flick that Richie does when it all goes quite goes like this)

-----------------------------------------------------------------------------
-----------------------------------------------------------------------------
--------------0-------------0----------------0-------------------------------
----------4--------------4----------------4--------------4---------------0---
-------5---------------------------------------------------------------------
-----------------------------------------------------------------------------

Any comments or suggestions please email

I will be placing some more songs up from Bon Jovi new album Crush
but if you have any requests off it please email JL_oddie@hotmail.com
Comments