Bon Jovi - Queen Of New Orleans Chords & Tabs

 

Queen Of New Orleans Chords & Tabs

Bon Jovi Chords & Tabs

Version: 3 Type: Tab 0 ratings
1 star 2 stars 3 stars 4 stars 5 stars
comments

Queen Of New Orleans Tab

   
tuning: standard

obviously there is no good tab for this song so here is probably one of the better ones 
only doing guitar 1 so no solo sorry

intro/verse
e--------------------------------------------------|
B----------3-2--------3-2--------------------------|
G--4--4-4-----4-2---2-----4-2----------------------|
D--4--4-4-----------2-----------2-2-2-5--0h5-0h5-2-|
A--2--2-2-----------0-----------2-2-2-5--0h5-0h5-2-|
E-------------------------------0-0-0-3--0h3-0h3-0-|

prechorus/play after first verse at :44
e----------------------------------|
B----------------------------------|
G--4-4-4-4-4-4-4-4-6-6-6-6-6-6-6-6-|
D--4-4-4-4-4-4-4-4-6-6-6-6-6-6-6-6-|
A--2-2-2-2-2-2-2-2-4-4-4-4-4-4-4-4-|
E----------------------------------|
[ Tab from: http://www.guitartabs.cc/tabs/b/bon_jovi/queen_of_new_orleans_tab_ver_3.html ]
chorus 1
so its easy for u and me ill give u the chords play in exact order
D:x577xx
A:577xxx
B:x244xxx
G:355xxx  x3 at the end of chorus play C:x355xxx


Bridge

e------|
B------|
G------|
D--8s10
A--8s10
E--6s8-x2

e-------------------------------------------------------------|
B-------------------------------------------------------------|
G---------------------8-8-8-8-8-8-8-8-11-11-11-11-11-11-11-11-|
D--8-8-8-8-8-8-8-8----8-8-8-8-8-8-8-8-11-11-11-11-11-11-11-11-|
A--8-8-8-8-8-8-8-8----6-6-6-6-6-6-6-6-9--9--9--9--9--9--9--9--|
E--6-6-6-6-6-6-6-6--------------------------------------------|


Chorus2
E:x799xxx
B:799xxx
C#:x466xxx
A:577xxx  fade out playing this chorus and ur dun hope ya had fun

rate please
Comments