Bon Jovi - Queen Of New Orleans Chords & Tabs

 

Queen Of New Orleans Chords & Tabs

Bon Jovi Chords & Tabs

Version: 1 Type: Tab 0 ratings
1 star 2 stars 3 stars 4 stars 5 stars
comments

Queen Of New Orleans Tab

Tuning : Normal

h - Hammer on
b - Bend
r - Release Bend

INTRO

E	4-----4--------------2-----2------------2---2-------2-----2------2-----------
B	6-----6-----5-4------4-----4-----5-4----2-- 2-------2-----2------2-----------
G	6-----6--------------4-----4------------3---3-------3-----3------3-----------
D	6-----6--------------4-----4------------4---4-------2h4---2h4----2-----------
A	4-----4--------------2-----2------------4---4-------2h4---2h4----2-----------
E	4-----4--------------2-----2------------2---2-------2------2-----2-----------
[ Tab from: http://www.guitartabs.cc/tabs/b/bon_jovi/queen_of_new_orleans_tab.html ]
E	4-----4--------------2-----2----------------2---2----------------------------
B	6-----6-----5-4------4-----4-----5-4------- 2---2------5b7-------------------
G	6-----6--------------4-----4----------------3---3----------------------------
D	6-----6--------------4-----4----------------4---4----------------------------
A	4-----4--------------2-----2----------------4---4----------------------------
E	4-----4--------------2-----2----------------2---2----------------------------

E	4-----4--------------2-----2----------------2---2----------------------------
B	6-----6-----5-4------4-----4-----5-4------- 2---2-----5b7-4h5-4h5-4h5-4h5-4h5
G	6-----6--------------4-----4----------------3---3----------------------------
D	6-----6--------------4-----4----------------4---4----------------------------
A	4-----4--------------2-----2----------------4---4----------------------------
E	4-----4--------------2-----2----------------2---2----------------------------


E	4-----4--------------2-----2------------2---2-------2-----2------2-----------
B	6-----6-----5-4------4-----4-----5-4----2-- 2-------2-----2------2-----------
G	6-----6--------------4-----4------------3---3-------3-----3------3-----------
D	6-----6--------------4-----4------------4---4-------2h4---2h4----2-----------
A	4-----4--------------2-----2------------4---4-------2h4---2h4----2-----------
E	4-----4--------------2-----2------------2---2-------2------2-----2-----------

Submitted by Aakreit Sachdeva (KgenExtreme)
Comments