Bon Jovi - Love Lies Chords & Tabs

 

Love Lies Chords & Tabs

Bon Jovi Chords & Tabs

Version: 1 Type: Tab 1 rating
1 star 2 stars 3 stars 4 stars 5 stars
comments

Love Lies Tab

   
#----------------------------------PLEASE NOTE---------------------------------#
#This file is the author's own work and represents their interpretation of the-#
#song. You may only use this file for private study, scholarship, or research.-#
#---------------This file was nailed by Matt Young-----------------------------#
#----------------www.loseyourillusion.co.uk. THE GNR TRIBUTE-------------------#
Song: Love Lies
Band - Bon Jovi 
Album - Bon Jovi               
Standard Tuning
E-mail - matt@loseyourillusion.co.uk

I have tried to get this song as close to the recording as i can. Use loads of gain for the harmonic bits
and plenty of chorus all round. Please enjoy this tune and any requests for anything else please send
to the above email address


Verse ( Played On Piano)
Piano 1
   F#M               BM/F#         C#M          F#M            C#5  E5
E:|---------------|--------------|-------------|----------------------------|
B:|--2------------|-3------------|-5-----------|----------------------------|
G:|--2------------|-4------------|-6-----------|----------------6---9-------|
D:|--4--4---4----2|----4---4-----|----2---2--2-|-4--------------6---9-------|
A:|-------4----4-0|-2----4----2-3|-4----4---4--|-4--------------4---7-------|
E:|---------------|--------------|-------------|-2--------------------------|

  F#M               BM/F#         C#M          F#M            
E:|---------------|--------------|-------------|----------------------------|
B:|--2------------|-3------------|-5-----------|----------------------------|
G:|--2------------|-4------------|-6-----------|----------------------------|
D:|--4--4---4----2|----4---4-----|----2---2--2-|-4--------------------------|
A:|-------4----4-0|-2----4----2-3|-4----4---4--|-4--------------------------|
E:|---------------|--------------|-------------|-2--------------------------|

 
I was lost........

 F#M               BM/F#         C#M          F#M            C#5  E5
E:|---------------|--------------|-------------|----------------------------|
B:|--2------------|-3------------|-5-----------|----------------------------|
G:|--2------------|-4------------|-6-----------|----------------6---9-------|
D:|--4--4---4----2|----4---4-----|----2---2--2-|-4--------------6---9-------|
A:|-------4----4-0|-2----4----2-3|-4----4---4--|-4--------------4---7-------|
E:|---------------|--------------|-------------|-2--------------------------|

I showed you my heart...
  F#M               BM/F#         C#M          F#M            C#5  E5
E:|---------------|--------------|-------------|----------------------------|
B:|--2------------|-3------------|-5-----------|----------------------------|
G:|--2------------|-4------------|-6-----------|----------------6---9-------|
D:|--4--4---4----2|----4---4-----|----2---2--2-|-4--------------6---9-------|
A:|-------4----4-0|-2----4----2-3|-4----4---4--|-4--------------4---7-------|
E:|---------------|--------------|-------------|-2--------------------------|

Bridge
GTR1 W/Chorus and distortion
Now Your Gone..                                    the pain goes..
  F#M          *w/WHAMMY BAR                      D                              E
E:|-----12(NH)--------------|--------------------|--12(NH)------------|------------------|
B:|----------12(NH)--12*(NH)|(12) RING ON--------|-----12(NH)--12*(NH)|--(12)------------|
G:|-------------------------|--------------------|--------------------|------------------|
D:|-------------------------|--------------------|--------------------|------------------|
A:|-------------------------|--------------------|--------------------|------------------|
E:|-------------------------|--------------------|--------------------|------------------|
                 I still hear...                      ..shadows of the night
F#M          *w/WHAMMY BAR                      D                       D       
E:|-----12(NH)--------------|--------------------|--12(NH)------------|------------------|
B:|----------12(NH)--12*(NH)|(12) RING ON--------|-----12(NH)--12*(NH)|------------------|
G:|-------------------------|--------------------|--------------------|------------------|
D:|-------------------------|--------------------|--------------------|--7-7-7-7-7-7-7-7-|
A:|-------------------------|--------------------|--------------------|--5-5-5-5-5-5-5-5-|
E:|-------------------------|--------------------|--------------------|------------------|

Chorus
Love lies..                         headlines....
 F#M               F#M             D 
E:|----------------|--------------|---------------|----------------------------|
B:|----------------|--------------|---------------|----------------------------|
G:|----------------|--------------|7--------------|----------------------------|
D:|4-------------4-|(4)RING ON----|7------------4-|-(4) RING ON----------------|
A:|4-----------4---|--------------|5----------4---|----------------------------|         
E:|2-----2--5------|--------------|-----2--5------|----------------------------|
 
 cold night....                     love lies...
 C#5               C#5             F#M
E:|----------------|--------------|----------------|----------------------------------------|
B:|----------------|--------------|----------------|----------------------------------------|
G:|6---------------|--------------|----------------|----------------------------------------|
D:|6-----------3---|-(3) RING ON--|4--------------4|-4(RING ONTO FEEDBACK THROUGH 2ND VERSE-|
A:|4---------4-----|--------------|4-----------4---|--TILL 1M.20SEC. PITCH F# THEN C#-------|
E:|----2--5--------|--------------|2------2--5-----|----------------------------------------|

Verse 2

all alone....
 F#M               BM/F#         C#M          F#M            C#5  E5
E:|---------------|--------------|-------------|----------------------------|
B:|--2------------|-3------------|-5-----------|----------------------------|
G:|--2------------|-4------------|-6-----------|----------------6---9-------|
D:|--4--4---4----2|----4---4-----|----2---2--2-|-4--------------6---9-------|
A:|-------4----4-0|-2----4----2-3|-4----4---4--|-4--------------4---7-------|
E:|---------------|--------------|-------------|-2--------------------------|

walking the streets               for a face that ..
  F#M               BM/F#         C#M          F#M            C#5  E5
E:|---------------|--------------|-------------|----------------------------|
B:|--2------------|-3------------|-5-----------|----------------------------|
G:|--2------------|-4------------|-6-----------|----------------6---9-------|
D:|--4--4---4----2|----4---4-----|----2---2--2-|-4--------------6---9-------|
A:|-------4----4-0|-2----4----2-3|-4----4---4--|-4--------------4---7-------|
E:|---------------|--------------|-------------|-2--------------------------|
  | Guitar 2
  |(Clean w/chorus)
E:|-------0-------|--------------|------0------|----------------------------|
B:|-------0-------|--------------|------0------|----------------------------|
G:|-------2-------|--------------|------2------|----------------------------|
D:|----4----------|--------------|----4--------|----------------------------|
A:|--4------------|--------------|--4----------|----------------------------|
E:|---------------|--------------|-------------|----------------------------|




Bridge
GTR1 W/Chorus and distortion
time goes on                                      simple dreams
  F#M          *w/WHAMMY BAR                      D                              E
E:|-----12(NH)--------------|--------------------|--12(NH)------------|------------------|
B:|----------12(NH)--12*(NH)|(12) RING ON--------|-----12(NH)--12*(NH)|--(12)------------|
G:|-------------------------|--------------------|--------------------|------------------|
D:|-------------------------|--------------------|--------------------|------------------|
A:|-------------------------|--------------------|--------------------|------------------|
E:|-------------------------|--------------------|--------------------|------------------|
   best of times...                               but how many ...
F#M          *w/WHAMMY BAR                       D                       D       
E:|-----12(NH)--------------|--------------------|--12(NH)------------|------------------|
B:|----------12(NH)--12*(NH)|(12) RING ON--------|-----12(NH)--12*(NH)|------------------|
G:|-------------------------|--------------------|--------------------|------------------|
D:|-------------------------|--------------------|--------------------|--7-7-7-7-7-7-7-7-|
A:|-------------------------|--------------------|--------------------|--5-5-5-5-5-5-5-5-|
E:|-------------------------|--------------------|--------------------|------------------|
[ Tab from: http://www.guitartabs.cc/tabs/b/bon_jovi/love_lies_tab.html ]
Chorus 2
Love lies..                         headlines....
 F#M               F#M             D 
E:|----------------|--------------|---------------|----------------------------|
B:|----------------|--------------|---------------|----------------------------|
G:|----------------|--------------|7--------------|----------------------------|
D:|4-------------4-|(2)RING ON----|7------------4-|-(2) RING ON----------------|
A:|4-----------4---|--------------|5----------4---|----------------------------|         
E:|2-----2--5------|--------------|-----2--5------|----------------------------|
 
 cold night....                     love lies...
 C#5               C#5             F#M
E:|----------------|--------------|----------------|---------------------------|
B:|----------------|--------------|----------------|---------------------------|
G:|6---------------|--------------|----------------|---------------------------|
D:|6-----------3---|-(3) RING ON--|4--------------4|-4(RING ON-----------------|
A:|4---------4-----|--------------|4-----------4---|---------------------------|
E:|----2--5--------|--------------|2------2--5-----|---------------------------|

Love lies..                         headlines....
 F#M               F#M             D 
E:|----------------|--------------|---------------|----------------------------|
B:|----------------|--------------|---------------|----------------------------|
G:|----------------|--------------|7--------------|----------------------------|
D:|4-------------4-|(2)RING ON---|7------------4--|-(2) RING ON----------------|
A:|4-----------4---|--------------|5----------4---|----------------------------|         
E:|2-----2--5------|--------------|-----2--5------|----------------------------|
 
 cold night....                     love lies...
 C#5               C#5             F#M
E:|----------------|--------------|----------------|---------------------------|
B:|----------------|--------------|----------------|---------------------------|
G:|6---------------|--------------|----------------|---------------------------|
D:|6-----------3---|-(3) RING ON--|4--------------4|-4(RING ON-----------------|
A:|4---------4-----|--------------|4-----------4---|---------------------------|
E:|----2--5--------|--------------|2------2--5-----|---------------------------|

Divider
  they metlate..                             both men knew....
 C#M                   C#M                 A 
E:|--------------------|------------------|---------------|-------------------|
B:|--------------------|------------------|---------------|-------2----------2|
G:|--6(LET CHORD RING)-|------------------|2(LET CHORD----|-------2----------2|
D:|--6-----------------|------------------|2------RING)---|-------------------|
A:|--4-----------------|------------------|0--------------|--0-0-----0-0-0-0--|         
E:|--------------------|------------------|---------------|-------------------|

   he stratched                          and took his
 F#M                  F#M                  G#M
                                           PALM MUTE                B
E:|--------------------|------------------|---------------|-------------------|
B:|--------------------|------------------|---------------|-------------------|
G:|--------------------|------------------|---------------|----------4-----4--|
D:|4(LET CHORD RING)---|------------------|---------------|6-6-6-6---4-----4--|
A:|4-------------------|------------------|6-6-6-6-6-6-6-6|6-6-6-6---2-----4--|         
E:|2-------------------|------------------|4-4-4-4-4-4-4-4|4-4-4-4------------|
 
   GUITAR SOLO 
N.B THE SOLO STARTS OFF ON SOME SORT OF WEIRD FLANGER EFFECT!!!

                                                  /VIOLENT WHAMMY BAR DROPS
C#M                                          A     *SLOWLY DECREASE WHAMMY BAR WHILE STILL PLAYING NOTES
E:|---------------------------|------------------|------------------------------|---------------------------------|
B:|---------------------------|-9/\/\---------------|9-12-9-12-9-12-*9-12-9-12-9-12|------------------------------|
G:|------------------9-10-11--|-9/\/\------------|------------------------------|11-9-11-9-11-9--9/9/9/9/9/9/-----|
D:|-----------9-10-11---------|------------------|------------------------------|-----------------------------11/-|
A:|----9-10-11----------------|------------------|------------------------------|---------------------------------|         
E:|---------------------------|------------------|------------------------------|---------------------------------|

  G#M                     G#M                  C#M
E:|-------------------|---------------------------|---------------|---------11-12-11-12---14(16)14-12---|
B:|-------------------|---------------------------|-14-14-14------|-14-13-14-------------------------14-|
G:|-------------------|---------------9-11-11(13)-|---------------|-------------------------------------|
D:|-----------4/6-----|----------9-11-------------|---------------|-------------------------------------|
A:|-------------------|-7-9--9-11-----------------|---------------|-------------------------------------|
E:|---4/2-------------|---------------------------|---------------|-------------------------------------|



 Final Chorus
   love lies                                  headlines...
   (RHYTHM GUITAR TRIPLET FEEL A LA IRON MAIDEN)
C#5                                         A5
E:|--------------------|------------------|-------------------|-------------------|
B:|--------------------|------------------|-------------------|-------------------|
G:|6-----------------6-|6----------------6|-------------------|-------------------|
D:|6-----------------6-|6----------------6|7-----------------7|7-----------------7|
A:|4-4-4-4--4-4-4--4-4-|4-4-4-4--4-4-4-4-4|7-----------------7|7-----------------7|
E:|--------------------|------------------|5-5-5-5--5-5-5--5-5|5-5-5-5--5-5-5--5-5|
  |
  |LEAD
E:|--------------------|------------------|-------------------|-------------------|
B:|--------------------|------------------|-------------------|-------------------|
G:|-------------------6|(6)RING ON--------|---------------6---|(6)----------------|
D:|---------------6----|------------------|------------6------|-RING ON-----------|
A:|--------4--7--------|------------------|-----4---7---------|-------------------|
E:|--------------------|------------------|-------------------|-------------------|

  G#5 runnin on..                           C#5
E:|--------------------|------------------|-------------------|-------------------|
B:|--------------------|------------------|-------------------|-------------------|
G:|--------------------|------------------|6-----------------6|6-----------------6|
D:|6-----------------6-|6----------------6|6-----------------6|6-----------------6|
A:|6-----------------6-|6----------------6|4-4-4-4--4-4-4--4-4|4-4-4-4--4-4-4--4-4|
E:|4-4-4-4--4-4-4--4-4-|4-4-4-4--4-4-4-4-4|-------------------|-------------------|
  |
  |LEAD
E:|--------------------|------------------|-------------------|-------------------|
B:|--------------------|------------------|-------------------|-------------------|
G:|-------------------5|(5)RING ON--------|---------------6---|(6)----------------|
D:|---------------6----|------------------|------------6------|RING ON------------|
A:|--------4--7--------|------------------|-----4---7---------|-------------------|
E:|--------------------|------------------|-------------------|-------------------|



C#5                                         A5
E:|--------------------|------------------|-------------------|-------------------|
B:|--------------------|------------------|-------------------|-------------------|
G:|6-----------------6-|6----------------6|-------------------|-------------------|
D:|6-----------------6-|6----------------6|7-----------------7|7-----------------7|
A:|4-4-4-4--4-4-4--4-4-|4-4-4-4--4-4-4-4-4|7-----------------7|7-----------------7|
E:|--------------------|------------------|5-5-5-5--5-5-5--5-5|5-5-5-5--5-5-5--5-5|
  |
  |LEAD
E:|--------------------|------------------|-------------------|-------------------|
B:|--------------------|------------------|-------------------|-------------------|
G:|-------------------6|(6)PINCHED--------|---------------6---|(6)----------------|
D:|---------------6----|----HARMONIC------|------------6------|PINCHED HARMONIC---|
A:|--------4--7--------|------------------|-----4---7---------|-------------------|
E:|--------------------|------------------|-------------------|-------------------|

  G#5 runnin on..                           C#5
E:|--------------------|------------------|-------------------|-------------------|
B:|--------------------|------------------|-------------------|-------------------|
G:|--------------------|------------------|6-----------------6|6-----------------6|
D:|6-----------------6-|6----------------6|6-----------------6|6-----------------6|
A:|6-----------------6-|6----------------6|4-4-4-4--4-4-4--4-4|4-4-4-4--4-4-4--4-4|
E:|4-4-4-4--4-4-4--4-4-|4-4-4-4--4-4-4-4-4|-------------------|-------------------|
  |
  |LEAD
E:|--------------------|------------------|-------------------|-------------------|
B:|--------------------|------------------|-------------------|-------------------|
G:|-------------------5|(5)PINCHED--------|---------------6---|(6)----------------|
D:|---------------6----|---HARMONIC-------|------------6------|PINCHED HARMONIC---|
A:|--------4--7--------|------------------|-----4---7---------|-------------------|
E:|--------------------|------------------|-------------------|-------------------|

FADES AFTER THIS BIT

Comments