Bon Jovi - Living In Sin Chords & Tabs

 

Living In Sin Chords & Tabs

Bon Jovi Chords & Tabs

Version: 1 Type: Tab 0 ratings
1 star 2 stars 3 stars 4 stars 5 stars
comments

Living In Sin Tab

   
This is my third tab.  I've been searching in a number of places for this song,
but, I couldn't find it anywhere.  It's a relatively simple song to play.  It's a
really great slow-dance song.  Listen to the song for timing.  Oh, yeah, this
song is actually a combination of tabs and chords, but I'm putting it
under "Tabs" because I like tabs better.  There's also two guitars in this song,
one acoustic (Jon) and one electric (Richie).  Enjoy!

Living In Sin
As performed on "New Jersey"
Written by Jon Bon Jovi

Standard tuning
h      hammer on
p      pull off
PM     palm mute
x      muffled strings
~      vibrating
()     harmonics
 
(Keyboard thing Intro) Am2
Verse (Jon) Strike each chord once
E
I don't need no license.........

Am2
I don't need no diamonds........

E
I just need you, baby...........

Rich hits an E on the electric after that
Then Jon plays this...
e[--0------------0-------------------------------------------
B[----0----0-------------------------------------------------
G[------1----1h2---1-----------------------------------------
D[-----------------------------------------------------------
A[-----------------------------------------------------------
E[-----------------------------------------------------------

E
I know they have a hard time....

E
I don't need your Daddy.........

Pre-Chorus
E                        Am2
There's million questions I could ask about our lives 



E
But I only need one answer.............

To get me through the night (Play below)
e[-----------------------------------
B[-----------------------------------
G[-----------------------------------
D[--4--------------------------------
A[--4--------------------------------
E[--2--------------------------------
[ Tab from: http://www.guitartabs.cc/tabs/b/bon_jovi/living_in_sin_tab.html ]
Chorus (x2)                                        End 2nd time
e[------------------------------------------------]-----
B[------------------------------------------------]-----
G[--------------------2-222--------2-222----------]-----
D[--2-22----2-22------2-222--x-----2-222----2--4--]--7--
A[--2-22--x-2-22------0-000--x-2---0-000--2-2--4--]--7--
E[--0-00--x-0-00--0-0----------0----------0-0--2--]--5--
                PM...                    PM

Repeat Verse, only make up a srumming pattern on the acoustic
After that, go to the chorus, and then the solo

SOLO           
e[-------------------17p16-17p16-17p16-----------------------------------
B[---17--17--17~~~~--------------------16-1717-1414-1212~~~~-16~~~~------
G[-----------------------------------------------------------------------
D[-----------------------------------------------------------------------
A[-----------------------------------------------------------------------
E[-----------------------------------------------------------------------

   (Harmonic dive)
e[----(19)--------------17p16-17p16-17p16----------21~~~19~~~--17p16---12~~-
B[----------------------------------------17~~~~~~--------------------------
G[--------------------------------------------------------------------------
D[--------------------------------------------------------------------------
A[--------------------------------------------------------------------------
E[--------------------------------------------------------------------------

End the solo on this
e[--------------------------------------------------------------------------
B[----12~~~~~~~~~~~~~-------------------------------------------------------
G[--------------------------------------------------------------------------
D[--------------------------------------------------------------------------
A[--------------------------------------------------------------------------
E[--------------------------------------------------------------------------

Repeat chorus two or three times, and then begin to fade.  That's basically it

Song Structure
Intro
Verse
Pre-Chorus
Chorus
Verse
Pre-Chorus
Chorus
Solo
Chorus (x3)

See?  I told you it was easy to play.  Have fun!  God bless!
Comments