Bon Jovi - Livin On A Prayer Chords & Tabs

 

Livin On A Prayer Chords & Tabs

Bon Jovi Chords & Tabs

Version: 9 Type: Tab 0 ratings
1 star 2 stars 3 stars 4 stars 5 stars
comments

Livin On A Prayer Tab

   
-------------------------------------------------------------------------------
			     livin' on a prayer- bon jovi
-------------------------------------------------------------------------------
Tabbed by:jamin_odbod
Email:

Tuning: standard

e|-------------------------------------------12---14---15-------------------|
B|------------------8---10---12---10---------------------15--12--13--15-----|
G|----9----7----9----------------------7-7----------------------------------|
D|--------------------------------------------------------------------------|
A|--------------------------------------------------------------------------|
E|--------------------------------------------------------------------------|
[ Tab from: http://www.guitartabs.cc/tabs/b/bon_jovi/livin_on_a_prayer_tab_ver_9.html ]
e|--12-12-------------7--8--7---------------------------12---14---15-----------|
B|----------15--------8--8--8----7-h8p--7-------------------------------15-----|
G|-----------------7--7--7--7--------------7-----------------------------------|
D|----------------------------------------------7------------------------------|
A|-----------------------------------------------------------------------------|
E|-----------------------------------------------------------------------------|

e|---------------------------------------------15--17-19--------------------|
B|--12--13--12---------17---------------15--17------------------------------|
G|------------12-----------------14--16-------------------------------------|
D|--------------------------------------------------------------------------|
A|--------------------------------------------------------------------------|
E|--------------------------------------------------------------------------|


| /  slide up
| \  slide down
| h  hammer-on
| p  pull-off
| ~  vibrato
| +  harmonic
| x  Mute note
===============================================================================
Comments