Bon Jovi - Livin On A Prayer Chords & Tabs

 

Livin On A Prayer Chords & Tabs

Bon Jovi Chords & Tabs

Version: 8 Type: Tab 0 ratings
1 star 2 stars 3 stars 4 stars 5 stars
comments

Livin On A Prayer Tab

Tuning:Eadgbe


e-------------------------------12-14-15---------------12-12------------
b--------8---10-10/12/10------------------12-12-13-15---------15-15-----
g--9-7-9------------------8-8-8-----------------------------------------
d-----------------------------------------------------------------------
a-----------------------------------------------------------------------
e-----------------------------------------------------------------------
[ Tab from: http://www.guitartabs.cc/tabs/b/bon_jovi/livin_on_a_prayer_tab_ver_8.html ]
e----------------------------12-14-15-----------------------------------
b--12-14-12--11bu---------------------12-12-13-12-----------------------
g--12-14-12--------12------------------------------12---15/17--15h17----
d---------------------12------------------------------------------------
a------------------------12---------------------------------------------
e-----------------------------------------------------------------------

e------------15h16h17---------------------------------------------------
b--15h16h17-------------------------------------------------------------
g-----------------------------------------------------------------------
d-----------------------------------------------------------------------
a-----------------------------------------------------------------------
e-----------------------------------------------------------------------

                              submitted by Hefin Williams
Comments