Bon Jovi - Livin On A Prayer Chords & Tabs

 

Livin On A Prayer Chords & Tabs

Bon Jovi Chords & Tabs

Version: 7 Type: Tab 0 ratings
1 star 2 stars 3 stars 4 stars 5 stars
comments

Livin On A Prayer Tab

   
LIVIN ON A PRAYER
As recorded by Bon Jovi
(From the 1986 Album SLEEPERY WHEN WET)

Words and Music by BJ
Transcribed by peekaboo104@hotmail.com

Gtr I (E A D G B E) - 'Guitar'

 Intro
  Q=128
 4/4
  Gtr I
  W          W          W          W
|----------|----------|----------|------|
|----------|----------|----------|------|
|----------|----------|----------|------|
|----------|----------|----------|------|
|----------|----------|----------|------|
|----------|----------|----------|------|


            3/4        4/4
  W          W          W          W
|----------|----------|----------|------|
|----------|----------|----------|------|
|----------|----------|----------|------|
|----------|----------|----------|------|
|----------|----------|----------|------|
|----------|----------|----------|------|


                           PM  PM  PM--|     PM  PM  PM--|
  W          H    Q  E E   E E E E E E E E   E E E E E E E E
|----------|-------------|-----------------|-----------------||
|----------|-------------|-----------------|-----------------||
|----------|-------------|-----------------|-----------------||
|----------|-------------|-----------------|-----------------||
|----------|-----------5-|---7---5-------5-|---7---5-------5-||
|----------|-------------|-0---0---0-0-7---|-0---0---0-0-7---||


 Verse
  PM  PM  PM--|     PM  PM  PM--|     PM  PM  PM--|     PM  PM  PM--|
  E E E E E E E E   E E E E E E E E   E E E E E E E E   E E E E E E E
E
|-----------------|-----------------|-----------------|-----------------|
|-----------------|-----------------|-----------------|-----------------|
|-----------------|-----------------|-----------------|-----------------|
|-----------------|-----------------|-----------------|-----------------|
|---7---5-------5-|---7---5-------5-|---7---5-------5-|---7---5-------5-|
|-0---0---0-0-7---|-0---0---0-0-7---|-0---0---0-0-7---|-0---0---0-0-7---|


  PM  PM  PM--|     PM  PM  PM--|     PM  PM  PM--|     PM  PM  PM--|
  E E E E E E E E   E E E E E E E E   E E E E E E E E   E E E E E E E
E
|-----------------|-----------------|-----------------|-----------------|
|-----------------|-----------------|-----------------|-----------------|
|-----------------|-----------------|-----------------|-----------------|
|-----------------|-----------------|-----------------|-----------------|
|---7---5-------5-|---7---5-------5-|---7---5-------5-|---7---5-------5-|
|-0---0---0-0-7---|-0---0---0-0-7---|-0---0---0-0-7---|-0---0---0-0-7---|


  PM  PM  PM--|     PM  PM  PM--|     PM  PM  PM--|     PM  PM  PM--|
  E E E E E E E E   E E E E E E E E   E E E E E E E E   E E E E E E E
E
|-----------------|-----------------|-----------------|-----------------|
|-----------------|-----------------|-----------------|-----------------|
|-----------------|-----------------|-----------------|-----------------|
|-----------------|-----------------|-----------------|-----------------|
|---7---5-------5-|---7---5-------5-|---7---5-------5-|---7---5-------5-|
|-0---0---0-0-7---|-0---0---0-0-7---|-0---0---0-0-7---|-0---0---0-0-7---|


  PM  PM  PM--|     PM  PM  PM--|
  E E E E E E E E   E E E E E E E E   W          W
|-----------------|-----------------|----------|------|
|-----------------|-----------------|----------|------|
|-----------------|-----------------|----------|------|
|-----------------|-----------------|----------|------|
|---7---5-------5-|---7---5-------5-|-3--------|-5----|
|-0---0---0-0-7---|-0---0---0-0-7---|----------|------|


  PM  PM  PM--|     PM  PM  PM--|     PM  PM  PM--|     PM  PM  PM--|
  E E E E E E E E   E E E E E E E E   E E E E E E E E   E E E E E E E
E
|-----------------|-----------------|-----------------|-----------------|
|-----------------|-----------------|-----------------|-----------------|
|-----------------|-----------------|-----------------|-----------------|
|-----------------|-----------------|-----------------|-----------------|
|---7---5-------5-|---7---5-------5-|---7---5-------5-|---7---5-------5-|
|-0---0---0-0-7---|-0---0---0-0-7---|-0---0---0-0-7---|-0---0---0-0-7---|


  PM  PM  PM--|     PM  PM  PM--|
  E E E E E E E E   E E E E E E E E   W          W
|-----------------|-----------------|----------|------|
|-----------------|-----------------|----------|------|
|-----------------|-----------------|----------|------|
|-----------------|-----------------|----------|------|
|---7---5-------5-|---7---5-------5-|-3--------|-5----|
|-0---0---0-0-7---|-0---0---0-0-7---|----------|------|


                                     Pre-chorus
  PM  PM  PM--|     PM  PM  PM--|        PM       PM|            PM 
PM
  E E E E E E E E   E E E E E E E E   Q  E E +Q   E E   Q  Q  Q  S S E
|-----------------|-----------------|-----------------|-----------------|
|-----------------|-----------------|-----------------|-----------------|
|-----------------|-----------------|-5----7-(7)------|-7--7--9---------|
|-----------------|-----------------|-5----7-(7)------|-7--7--9---------|
|---7---5-------5-|---7---5-------5-|-3----5-(5)------|-5--5--7---------|
|-0---0---0-0-7---|-0---0---0-0-7---|----0--------0-0-|-5--------0---0--|


      PM       PM--|                          PM       PM|            
 PM
   Q  S S E Q  S S E   Q  Q  Q  S S S S    Q  E E +Q   E E   Q  Q  Q 
E S S
|--------------------|------------------|------------------|-----------------|
|--------------------|------------------|------------------|-----------------|
|---------7-7--------|-7--7--9----------|-------7-(7)------|-7--7--9--7---5--|
|-10------7-7--------|-7--7--9----------|-10----7-(7)------|-7--7--9--7---5--|
|-10------5-5--------|-5--5--7--0---0---|-10----5-(5)------|-5--5--7--5---3--|
|--8--0--------0---0-|----------0---0---|--8--0--------5-5-|-5----------0----|


                                Chorus
                                    PM       PM
  W          E. S +E  E E E Q    Q  E E +Q   S S E   H.      E E
|----------|-------------------|-------------------|--------------|
|----------|-------------------|-------------------|--------------|
|-5--------|-7--7-(7)-7-7------|------5-(5)------5-|-7------------|
|-5--------|-7--7-(7)-7-7------|------5-(5)------5-|-7-------0----|
|-3--------|-5--5-(5)-5-5---7--|-2----3-(3)------3-|-5-------0----|
|----------|-------------------|-0--0--------0-----|-----------0--|


     PM           PM              PM     PM       PM
  Q  S S E +Q   E E   H.      S S E   Q  E E +Q   S S E   H.      S S
E
|-------------------|---------------|-------------------|---------------|
|-------------------|---------------|-------------------|---------------|
|--------5-(5)------|-7-------------|------5-(5)--------|-7-------------|
|-5------5-(5)--5---|-7-------0-----|-2----5-(5)------5-|-7-------------|
|-5------3-(3)--3-0-|-5-------0---0-|-2--0-3-(3)--0---3-|-5-------0-----|
|-3--0--------------|---------------|-0-----------------|-------------0-|


                                Interlude
                                 PM  PM  PM--|     PM  PM  PM--|
  Q  S S E +Q   E E   W          E E E E E E E E   E E E E E E E E
|-------------------|----------|-----------------|------------------|
|-------------------|----------|-----------------|------------------|
|--------5-(5)------|-7--------|-----------------|------------------|
|-5------5-(5)------|-7--------|-----------------|------------------|
|-5--0---3-(3)--5-5-|-5--------|---7---5-------5-|---7---5-------5--|
|-3-----------------|----------|-0---0---0-0-7---|-0---0---0-0-7----|


  PM  PM  PM--|     PM  PM  PM--|     PM  PM  PM--|     PM  PM  PM--|
  E E E E E E E E   E E E E E E E E   E E E E E E E E   E E E E E E E
E
|-----------------|-----------------|-----------------|-----------------|
|-----------------|-----------------|-----------------|-----------------|
|-----------------|-----------------|-----------------|-----------------|
|-----------------|-----------------|-----------------|-----------------|
|---7---5-------5-|---7---5-------5-|---7---5-------5-|---7---5-------5-|
|-0---0---0-0-7---|-0---0---0-0-7---|-0---0---0-0-7---|-0---0---0-0-7---|


  Q  E  E       Q.        +E     H.       E  E
|-----------------------------|----------------|
|-----------------------------|----------------|
|------14b15.5-14b15.5r==(14)-|-14-------14\---|
|-----------------------------|----------------|
|-----------------------------|----------------|
|-----------------------------|----------------|


                                   \4
      ~~~~~~~~~~~          ~~~~~~~~
  Q   Q      +Q.   E    S  E.  +E  E  +H
|----20b22--(20)-----|-----------------------|
|--------------------|-20-17--(17)-----------|
|------------------0-|-------------0--(0)----|
|--------------------|-----------------------|
|--------------------|-----------------------|
|--------------------|-----------------------|

[ Tab from: http://www.guitartabs.cc/tabs/b/bon_jovi/livin_on_a_prayer_tab_ver_7.html ]
 Verse
  PM  PM  PM--|     PM  PM  PM--|     PM  PM  PM--|     PM  PM  PM--|
  E E E E E E E E   E E E E E E E E   E E E E E E E E   E E E E E E E
E
|-----------------|-----------------|-----------------|-----------------|
|-----------------|-----------------|-----------------|-----------------|
|-----------------|-----------------|-----------------|-----------------|
|-----------------|-----------------|-----------------|-----------------|
|---7---5-------5-|---7---5-------5-|---7---5-------5-|---7---5-------5-|
|-0---0---0-0-7---|-0---0---0-0-7---|-0---0---0-0-7---|-0---0---0-0-7---|


  PM  PM  PM--|     PM  PM  PM--|     PM  PM  PM--|     PM  PM  PM--|
  E E E E E E E E   E E E E E E E E   E E E E E E E E   E E E E E E E
E
|-----------------|-----------------|-----------------|-----------------|
|-----------------|-----------------|-----------------|-----------------|
|-----------------|-----------------|-----------------|-----------------|
|-----------------|-----------------|-----------------|-----------------|
|---7---5-------5-|---7---5-------5-|---7---5-------5-|---7---5-------5-|
|-0---0---0-0-7---|-0---0---0-0-7---|-0---0---0-0-7---|-0---0---0-0-7---|


 Pre-chorus
     PM                                     PM--|
  Q  S S E H      E E Q  H      Q  E E +Q   S S E   Q  Q  Q.   E
|---------------|-------------|-------------------|--------------|
|---------------|-------------|------7-(7)--------|--------------|
|-5------7-7----|-7---7--9----|-5----7-(7)--------|-7--7--9------|
|-5------7-7----|-7---7--9----|-5----7-(7)--------|-7--7--9------|
|-3--0---5-5----|-5---5--7----|-3--5-5-(5)--5-----|-5--5--7------|
|---------------|-------------|-----------------5-|------------5-|


     PM       PM--|                                           PM
  Q  E E +Q   S S E   Q  Q  Q  Q     W          E. S +E  E Q  Q
|-------------------|-------------|-----------|-------------------|
|-------------------|-------------|-----------|-------------------|
|-5----7-(7)--------|-7--7--9--7--|-----------|-7--7-(7)-7-7------|
|-5----7-(7)--------|-7--7--9--7--|-10--------|-7--7-(7)-7-7------|
|-3----5-(5)--------|-5--5--7--5--|-10--------|-5--5-(5)-5-5--7---|
|----5--------5---5-|-------------|--8--------|-------------------|


 Chorus
     PM       PM              PM--|      PM         PM--|
  Q  E E +Q   S S E   H.      S S E   Q  S S E +Q   S S E   H.      Q
|-------------------|---------------|---------------------|------------|
|-------------------|---------------|---------------------|------------|
|------5-(5)------5-|-7-------------|--------5-(5)--------|-7----------|
|-2----5-(5)------5-|-7-------------|-5------5-(5)--------|-7-------7--|
|-2----3-(3)--0---3-|-5-------0-----|-5------3-(3)--------|-5----------|
|-0--0--------------|-------------0-|-3--0---3-(3)--0---0-|------------|


     PM         PM--|             PM                PM--|
  Q  S S E +Q   S S E   H.      E E   Q  S S E +Q   S S E   H.      Q
|---------------------|-------------|---------------------|------------|
|---------------------|-------------|---------------------|------------|
|--------5-(5)--------|-7-----------|--------5-(5)--------|-7----------|
|-2------5-(5)--------|-7-------7---|-5------5-(5)--------|-7----------|
|-2------3-(3)--0---0-|-5-----------|-5--0---3-(3)--0---0-|-5----------|
|-0--0----------------|-----------0-|-3-------------------|------------|


 Guitar solo
    Q.    Q.    Q     +H     Q   E E
|-------------------|----------------|
|-------------------|----------------|
|-<12>---<7>---<5>--|-(5)------------|
|-<12>---<7>---<5>--|-(5)------------|
|-------------------|----------------|
|-------------------|-----------12s5-|


      ~                       ~
  E E Q  E E  Q          E  E H     S  S  E
|---------------------|---------------12-14--|
|---------------------|------------12--------|
|---------------------|----------------------|
|--------5-7-[7]b8.5--|-[7]------------------|
|-7-5-7---------------|-----5-5--------------|
|---------------------|----------------------|


                                           ~~~~~~~~
   E  E  E  E  +E   E  E     E       +Q    Q   +H
|-15------------------------------|-------------------|
|----15-12-13-(13)-15-15b17-15b17r|=(15)--15--(15)----|
|---------------------------------|-------------------|
|---------------------------------|-------------------|
|---------------------------------|-------------------|
|---------------------------------|-------------------|


   S  S  S  S  S  S  E S S  E S  S   S      +S
|-----------------------------------------------|
|--x--x-12-12-12-12-13-x-x-12-------------------|
|--x-12-12-12--x--x-14-x-x-11-x-11-[11]b12r(11)-|
|-12--x--------x--x--------12-------------------|
|-----------------------------------------------|
|-----------------------------------------------|


           ~~                                   ~~
   +E   E  H     S  S  E    E  E  E  E  +E   E  Q
|------------------12-14-|-15----------------------|
|---------------12-------|----15-12-13-(13)-12-----|
|-(11)-------------------|---------------------12--|
|------12----------------|-------------------------|
|---------12-------------|-------------------------|
|------------------------|-------------------------|


          ~~~~~                                              
~~~~~~~~~~
                                |--3--|  |--3--|  |--3--|
   Q      Q       Q     +Q      S  S  S  S  S  S  S  S  S  S  S     +Q
 Q
|----------------------------|----------------------------15-17b19-(17)---|
|-15b17--15b17---15b17r(15)--|----------15-16-17-15-16-17-----------------|
|----------------------------|-14-15-16-----------------------------------|
|----------------------------|--------------------------------------------|
|----------------------------|--------------------------------------------|
|----------------------------|--------------------------------------------|


                                                Chorus/Outro
                                                3/4
     PM         PM  PM
  Q  S S E +Q   S S E   Q  Q  Q  Q    W          E. S +E  E Q
|---------------------|-------------|----------|----------------|
|---------------------|-------------|----------|----------------|
|-5------7-(7)--------|-7--7--9--7--|-5--------|-7--7-(7)-7-7---|
|-5------7-(7)--------|-7--7--9--7--|-5--------|-7--7-(7)-7-7---|
|-3--0---5-(5)--0---0-|-5--5--7--5--|-3--------|-5--5-(5)-5-5---|
|---------------------|-------------|----------|----------------|


 4/4
     PM         PM  PM          PM|      PM         PM  PM          
PM  PM
  Q  S S E +Q   S S E   H.      E E   Q  S S E +Q   S S E   H    +E  E
E E
|---------------------|-------------|---------------------|-----------------|
|---------------------|-------------|---------------------|-----------------|
|--------8-(8)--------|-------------|-3------8-(8)--------|-----------------|
|-5------8-(8)--------|-3-----------|-3------8-(8)--------|-3----(3)---3----|
|-5------6-(6)--0-----|-3-----------|-1------6-(6)--0-----|-3----(3)--------|
|-3--0--------------0-|-1-------1-1-|----0--------------0-|-1----(1)-1---1--|


     PM         PM  PM          PM|      PM       PM--|           PM|
  Q  S S E +Q   S S E   H.      E E   Q  E E +Q   S S E   H.      E E
|---------------------|-------------|-------------------|--------------|
|---------------------|-------------|-------------------|--------------|
|--------8-(8)--------|-------------|-3----8-(8)--------|--------------|
|-5------8-(8)--------|-3-----------|-3----8-(8)--------|-3------------|
|-5------6-(6)--0-----|-3-----------|-1--0-6-(6)--0-----|-3------------|
|-3--0--------------0-|-1-------1-1-|-----------------0-|-1-------1-1--|


     PM         PM  PM          PM|      PM         PM  PM         
PM|
  Q  S S E +Q   S S E   H.      E E   Q  S S E +Q   S S E   H.      E
E
|---------------------|-------------|---------------------|-------------|
|---------------------|-------------|---------------------|-------------|
|--------8-(8)--------|-------------|-3------8-(8)--------|-------------|
|-5------8-(8)--------|-3-----------|-3------8-(8)--------|-3-----------|
|-5------6-(6)--0-----|-3-----------|-1------6-(6)--0-----|-3-----------|
|-3--0--------------0-|-1-------1-1-|----0--------------0-|-1-------1-0-|


     PM         PM  PM          PM|      PM       PM  PM          PM|
  Q  S S E +Q   S S E   H.      E E   Q  E E +Q   S S E   H.      E E
|---------------------|-------------|-------------------|--------------|
|---------------------|-------------|-------------------|--------------|
|--------8-(8)--------|-------------|-3----8-(8)--------|--------------|
|-5------8-(8)--------|-3-----------|-3----8-(8)--------|-3------------|
|-5------6-(6)--0-----|-3-----------|-1--0-6-(6)--0-----|-3------------|
|-3--0--------------0-|-1-------1-1-|-----------------0-|-1-------1-1--|


     PM         PM  PM          PM|      PM         PM  PM          
PM  PM
  Q  S S E +Q   S S E   H.      E E   Q  S S E +Q   S S E   H    +E  E
E E
|---------------------|-------------|---------------------|----------------|
|---------------------|-------------|---------------------|----------------|
|--------8-(8)--------|-------------|-3------8-(8)--------|----------------|
|-5------8-(8)--------|-3-----------|-3------8-(8)--------|-3----(3)---3---|
|-5------6-(6)--0-----|-3-----------|-1------6-(6)--0-----|-3----(3)-------|
|-3--0--------------0-|-1-------1-1-|----0--------------0-|-1----(1)-1---1-|


     PM         PM  PM          PM|      PM       PM  PM          PM|
  Q  S S E +Q   S S E   H.      E E   Q  E E +Q   S S E   H.      E E
|---------------------|-------------|-------------------|--------------|
|---------------------|-------------|-------------------|--------------|
|--------8-(8)--------|-------------|-3----8-(8)--------|--------------|
|-5------8-(8)--------|-3-----------|-3----8-(8)--------|-3------------|
|-5------6-(6)--0-----|-3-----------|-1--0-6-(6)--0-----|-3------------|
|-3--0--------------0-|-1-------1-1-|-----------------0-|-1-------1-1--|


     PM         PM  PM          PM|      PM|        PM--|           
PM  PM
  Q  S S E +Q   S S E   H.      E E   Q  S S E +Q   S S E   H    +E  E
E E
|---------------------|-------------|---------------------|----------------|
|---------------------|-------------|---------------------|----------------|
|--------8-(8)--------|-------------|-3------8-(8)--------|----------------|
|-5------8-(8)--------|-3-----------|-3------8-(8)--------|-3----(3)---3---|
|-5------6-(6)--0-----|-3-----------|-1------6-(6)--0-----|-3----(3)-------|
|-3--0--------------0-|-1-------1-1-|----0--------------0-|-1----(1)-1---1-|


     PM         PM  PM          PM|      PM       PM--|           PM|
  Q  S S E +Q   S S E   H.      E E   Q  E E +Q   S S E   H.      E E
|---------------------|-------------|-------------------|--------------*|
|---------------------|-------------|------4-(4)--------|--------------*|
|--------8-(8)--------|-------------|-3----3-(3)--------|--------------*|
|-5------8-(8)--------|-3-----------|-3----1-(1)--------|-3------------*|
|-5------6-(6)--0-----|-3-----------|-1--0--------0-----|-3------------*|
|-3--0--------------0-|-1-------1-1-|-----------------0-|-1-------1-1--*|
Comments