Bon Jovi - Livin On A Prayer Chords & Tabs

 

Livin On A Prayer Chords & Tabs

Bon Jovi Chords & Tabs

Version: 4 Type: Tab 0 ratings
1 star 2 stars 3 stars 4 stars 5 stars
comments

Livin On A Prayer Tab

   
Any comments or questions can be send to "eraser49@hotmail.com"

b = bend
~ = vibrato
[ Tab from: http://www.guitartabs.cc/tabs/b/bon_jovi/livin_on_a_prayer_tab_ver_4.html ]
e|----------------------------------------------------------12----14---15---|
B|--------------------------------------------------------------------------|
G|--------------------------------------------------------------------------|
D|---------------------5-----7----7----9-----7------------------------------|
A|---7-----5-----7---------------------------------5---5--------------------|
E|--------------------------------------------------------------------------|
         [     Chords      ]
e|-----------------------------12---12---------------7--7----8----0---------|
B|---15----12----13-----15-------------15----15---8--8----8----8------------|
G|----------------------------------------------------7--7----9----7--------|
D|--------------------------------------------------------------------------|
A|--------------------------------------------------------------------------|
E|--------------------------------------------------------------------------|

e|---------------------12----14---15-----------------------------12---12----|
B|---7(b)8----------------------------15---12----13---12--------------------|
G|----------7-------------------------------------------------14------------|
D|-------------7------------------------------------------------------------|
A|--------------------------------------------------------------------------|
E|--------------------------------------------------------------------------|

e|------------------15-17-17b~----------------------------------------------|
B|----------15-17-----------------------------------------------------------|
G|---14-16------------------------------------------------------------------|
D|--------------------------------------------------------------------------|
A|--------------------------------------------------------------------------|
E|--------------------------------------------------------------------------|
Comments