Bon Jovi - Lay Your Hands On Me Chords & Tabs

 

Lay Your Hands On Me Chords & Tabs

Bon Jovi Chords & Tabs

Version: 2 Type: Tab 0 ratings
1 star 2 stars 3 stars 4 stars 5 stars
comments

Lay Your Hands On Me Tab

   
-------------------------------------------------------------------------------
			     Bon Jovi - Lay Your Hands On Me
-------------------------------------------------------------------------------

Tabbed by : Davie Reid
Email : Dannyreid39@aol.com
Version : Live Crush Video/DVD

| /  slide up
| \  slide down
| h  hammer-on
| p  pull-off
| ~  vibrato
| *  harmonic
| x  Mute note

e|----------------------------|----------------------------------------------|
B|----------------------------|--12p9-11-9--12p9-11-9--12p11p9~~~~-----------|
G|----------------------------|----------------------------------------------|
D|-9-7-9----------------------|----------------------------------------------|
A|-9-7-9--------3-5-------3-5-|----------------------------------------------|
E|-7-5-7--3-4-5-----3-4-5-----|----------------------------------------------|
          p p p   * p p p   *
[ Tab from: http://www.guitartabs.cc/tabs/b/bon_jovi/lay_your_hands_on_me_tab_ver_2.html ]
e|---------------------------------------------------------------------------|
B|---------------------------------------------------------------------------|
G|-----------------------------------------------------------11p910p912p910p9|
D|----------------------------------9~~--11p910p912p9p10p9-------------------|
A|--9-10-11-9-10-11-9-10-11-9-10-11------------------------------------------|
G|---------------------------------------------------------------------------|
    p pp ** p pp ** p pp ** p pp ** *
e|---------------------------------------------------------------------------|
B|--(11p9-10p9-12p9-10p9-11p9)-10~~-12-12-12-12-12-12~~-11p9-10p9------------|
G|--------repeat-4-times------------------------------------------10-11-9~~~-|
D|---------------------------------------------------------------------------|
A|---------------------------------------------------------------------------|
E|---------------------------------------------------------------------------|
                               **   bb
e|----------------------------------------|----------------------------------|
B|----------------------------------------|--12p9---11~~~~--11p9-10p9-11p9---|
G|----------------------------------------|-4times---------------------------|
D|----------------------------------------|----------------------------------|
A|------3/7\3/7\3/7\2~~~-3/7\3/7\3/////>>-|----------------------------------|
E|----------------------------------------|----------------------------------|
                    *
e|---------------------------------------------------------------------------|
B|------------------999h11 999h11 999h11-99 12~~~~---------------------------|
G|-11-12-9-12-9~~~-----------------------------------------------------------|
D|---------------------------------------------------------------------------|
A|---------------------------------------------------------------------------|
E|---------------------------------------------------------------------------|
                                            **
e|-------------------------------------------|-------------------------------|
B|--8-9-11-12---12-12-12-12-11-9-7~~~~\\\\<--|-------------------------------|
G|-Slide while-------------------------------|-------------------------------|
D|---picking---------------------------------|-------------------------------|
A|-------------------------------------------|-------------------------------|
E|-------------------------------------------|--7-5-7-5-3-2-0----------------|
                                                            V-Stick
Comments