Bon Jovi - Lay Your Hands On Me Chords & Tabs

 

Lay Your Hands On Me Chords & Tabs

Bon Jovi Chords & Tabs

Version: 1 Type: Tab 0 ratings
1 star 2 stars 3 stars 4 stars 5 stars
comments

Lay Your Hands On Me Tab

   
e-2-3-------2-----
b-3-3-------3-----
g-2-0-------2-----
d-0-----3-5-0-----
a-------3-5-------
e-------3-5-------
[ Tab from: http://www.guitartabs.cc/tabs/b/bon_jovi/lay_your_hands_on_me_tab.html ]
e-------------------
b-------------------
g-------------------
d-30-57-45545-35535-
a-30-35-23323-35535-
e-30----------35535-

As you can tell it is very Fast! 
Comments