Bon Jovi - Its My Life Chords & Tabs

 

Its My Life Chords & Tabs

Bon Jovi Chords & Tabs

Version: 3 Type: Bass Tab 0 ratings
1 star 2 stars 3 stars 4 stars 5 stars
comments

Its My Life Bass Tab

Bon Jovi - Itís my life

It's played on a five string, and because the g-string isn't played at all,
I left it out in the whole tab for the ease.

Intro:
D|------------------|----------------|
A|----------------3-|----------------|
E|------------3-----|----------------|
B|-1-1----------4---|-1-1-1----------|

Verse:                                    3x
D|--------------|-----------------------1---|
A|--------------|*----------1-3-----1-----3*|
E|--------------|*--------------------3----*|
B|-1------------|-1--1--1-1-----1-1---------|

D|--------------|--------------|------|
A|*------------*|*------------*|-rest-|
E|*------------*|*1--1--1-1-1-*|------|
B|-1--1--1-1-1--|--------------|------|

Chorus:
D|---------------------------------|---------------------------------|
A|*----3---------------6-------3---|-----6---------------5-----------|
E|*------------1-3-4-4---4-4-6---6-|-------------3-------------------|
B|-1-1---1-1-4---------------------|-4-4---4-4-6---6-3-3---3-3-4-6-4-|
[ Tab from: http://www.guitartabs.cc/tabs/b/bon_jovi/its_my_life_btab_ver_3.html ]
D|---------------------------------|---------------------------------|
A|-----3---------------6-------3---|--------------------------------*|
E|-------------1-3-4-4---4-4-6---6-|-6-6-6-6-6-6-6-6-6-6-6-6-7-7-7-7*|
B|-1-1---1-1-4---------------------|---------------------------------|

Interlude:
D|----------------|----------------|
A|----------------|----------------|
E|----------------|----------------|
B|-1-1------------|-1-1-1----------|

Repeat verse
Repeat chorus (not the interlude)

Bridge/guitar solo:
D|---------------------------------|---------------------------------|
A|---------------------------------|-1-1-1-1-1-1-1-1-1-1-1-1-1-1-1-1-|
E|-4-4-4-4-4-4-4-4-4-4-4-4-4-4-4-4-|---------------------------------|
B|---------------------------------|---------------------------------|

D|---------------------------------|-----------------------------1---|
A|-3-3-3-3-3-3-3-3-3-3-3-3-3-3-3-3-|---------------------------1---1-|
E|---------------------------------|-1-1-1-1-1-1-1-1-1-1-1-1-3-------|
B|---------------------------------|---------------------------------|

D|---------------------------|---------------------------|
A|-3=========================|================-----------|
E|---------------------------|---------------------------|
B|---------------------------|-----------------1--1------|

Repeat chorus 4x

Thatís all folks!!
Comments