Bon Jovi - Its My Life Acoustic Chords & Tabs

 

Its My Life Acoustic Chords & Tabs

Bon Jovi Chords & Tabs

Version: 2 Type: Tab 0 ratings
1 star 2 stars 3 stars 4 stars 5 stars
comments

Its My Life Acoustic Tab

   
Title     : It's My Life (Acoustic)
Artist    : Bon Jovi
Album     : This Left Feels Right
Capo      : none
Setting   : E-A-D-G-B-E
Tabbed by : SR71
-------------------------------------------------

Titel  : It's My Life (Acoustic)
Artist : Bon Jovi
Album  : This Left Feels Right
===============================================================
Akkords:

Am    = x02210
Bm7   = x2023x
D     = xx0232
Dm6   = x5320x 
Dsus  = xx0233
E     = 022100
Esus  = 022200
C6    = x32210
Fsus2 = xx3011
G     = 320003
G/B   = x20030

Riff 2
             Am
e|----------------|-
B|----------------|-
G|-4--2---4--5----|-
D|-5--3---5--7----|-
A|----------------|-
E|----------------|-



================================================================
INTRO:
[ Tab from: http://www.guitartabs.cc/tabs/b/bon_jovi/its_my_life_acoustic_tab_ver_2.html ]
Riff1 (2x)
   Am                         
e|--0---------12-13---12-------------------------------|-
B|--1------13-------------13-------13---12-------------|-
G|--2---14--------------------14-------------14--(14)--|-
D|--2--------------------------------------------------|-
A|--0--------------------------------------------------|-
E|-----------------------------------------------------|-


 Am                     Fsus2          G   (Riff2)
This is a song for the broken-hearted
  Am                  Fsus2            G   (Riff2)
A silent prayer for a faith-departed
Am                       Bm7         
I ain't gonna be just a face in the crowd
              C6 
You're gonna hear my voice
        Dsus         D
When I shout it out loud

Esus E   Am
It's my life
     Fsus2        C
It's now or never
               G/B       G
I ain't gonna live forever
 Am          Fsus2               G  Am7
I just wanna live while I'm alive
G/B      C
It's my life
                     Fsus2    G    Am
My heart is like the open highway
      Am                    G
Like Frankie said "I did it my way"
C               Fsus2                G
   I just wanna live while I'm alive
Dm6  E   Am              Riff1
It's my life
Comments