Bon Jovi - In And Out Of Love Chords & Tabs

 

In And Out Of Love Chords & Tabs

Bon Jovi Chords & Tabs

Version: 1 Type: Tab 0 ratings
1 star 2 stars 3 stars 4 stars 5 stars
comments

In And Out Of Love Tab

   
#----------------------------------PLEASE NOTE---------------------------------#
#This file is the author's own work and represents their interpretation of the #
#song. You may only use this file for private study, scholarship, or research. #
#------------------------------------------------------------------------------#

Title: In And Out Of Love
Artist: Bon Jovi
From: 7800° Fahrenheit (1985)
Words and Music: Jon Bon Jovi
Tabbed by: Peter Pletz
email: godspeedro1383@mylesbian.com




e :---------------------------------|-------------------------------|
B :---------------------------------|-------------------------------|
G :-2-------5-------2-------------5-|-(5)-2-------5/7--4---------2--|
D :-2-------5-------2---------------|--------3------------5------2--|
A :-0---0-------0-------------------|----------------------------0--|
E :---------------------------------|-------------------------------|


   e :---------------------------------|--------------------------|
B :---------------------------------|--------------------------|
G :-(2)------5-------2------------5-|-(5)-2--5----5/7--4-------|
D :-(2)------5-------2--------------|-----------------------5--|
A :-(0)--0-------0------------------|--------------------------|
E :---------------------------------|--------------------------|




  |-P.M.-|                                  |-------------P.M.-------- 
e :------------------------------|-----------------------------------|
B :------------------------------|-----------------------------------|
G :-------2----------------------|-----------------------------------|
D :-------2----------------------|-----------------------------------|
A :-0--0--0----------------------|-----------0---0---0---0---0---0---|
E :------------------------------|-----------------------------------|




  -------|                                P.M.             
e :---------------------------------|----------------------------------|
B :---------7-------8------(8)\-----|--3-------------------------------|
G :---------7-------7------(7)\-----|--0-------2-----------------------|
D :---------7-------9------(9)\-----|--4-------2-----------------------|
A :-0---0-------0-------------------|--0---0---0-----------------------|
E :---------------------------------|----------------------------------|




  |-P.M.-|                                  |-------------P.M.-------- 
e :------------------------------|-----------------------------------|
B :------------------------------|-----------------------------------|
G :-------2----------------------|-----------------------------------|
D :-------2----------------------|-----------------------------------|
A :-0--0--0----------------------|-----------0---0---0---0---0---0---|
E :------------------------------|-----------------------------------|



                                                

  -------|                                P.M.             
e :---------------------------------|----------------------------------|
B :---------7-------8------(8)\-----|--3-------------------------------|
G :---------7-------7------(7)\-----|--0-------2-----------------------|
D :---------7-------9------(9)\-----|--4-------2-----------------------|
A :-0---0-------0-------------------|--0---0---0-----------------------|
E :---------------------------------|----------------------------------|




                                                w/bar
e :---------------------------------|---------------------------------|
B :-----3---------------------------|---(3)---(3)---(3)---(3)---------|
G :-----2---------------------------|---(2)---(2)---(2)---(2)---------|
D :-----0---------------------------|---(0)---(0)---(0)---(0)---------|
A :---------------------------------|---------------------------------|
E :--3------------------------------|---(3)---(3)---(3)---(3)---------|
                                         Ú      Ú      Ú      Ú      


  |-P.M.-|
e :------------------------------3--|--3---2---2----------------------|
B :--------3---------------------3--|--3---3---3----------------------|
G :--------2---------------------2--|--2---2---2----------------------|
D :--0--0--0---------------------0--|--0---0---0----------------------|
A :---------------------------------|---------------------------------|
E :---------------------------------|---------------------------------|






  |--P.M.--|  |--P.M.--|  |--P.M.--|    |--P.M.--|  |--P.M.--|
e :---------------------------------|---------------------------------|
B :---------------------------------|---------------------------------|
G :----------2-----------2----------|--2-----------2-----------2------|
D :----------0-----------0----------|--0-----------0-----------0------|
A :---------------------------------|---------------------------------|
E :--3---3-------3---3-------3---3--|------3---3-------3---3----------|




    P.M.        P.M.        P.M.
e :---------------------------------|---------------------------------|
B :------3---3-------3---3-------3--|--3------------------------------|
G :------2---2-------2---2-------2--|--2---------------------------2--|
D :--0-----------0-----------0------|--0---------------------------2--|
A :---------------------------------|-------3--5--3sb--------------0--|
E :---------------------------------|---------------------------------|


                      |-------N.H.-------| |-------w/bar-------|
e :----------------------5------12--|-(12)-\-\----------------------|
B :-------------------5-----12------|----------\-\------------------|
G :---------------------------------|--------------\-\-----------2--|
D :---------------------------------|------------------\-\-------2--|
A :---------------------------------|----------------------\-\---0--|
E :--0--0---------------------------|-------------------------------|


  


e :---------------------------------|---------------------------------|
B :---------------------------------|---------------------------------|
G :-(2)-------5-------2----------2--|-(2)-------5-------7-\-\---------|
D :-(2)-------5-------2----------2--|-(2)-------5-------7-\-\---------|
A :-(0)---0-------0---0----------0--|-(0)---0-------0-----------------|
E :---------------------------------|---------------------------------|




e :--------------------------------|---------------------------------|
B :--------------------------------|---------------------------------|
G :--------------7--------------2--|-(2)-------5-------2----------2--|
D :----5---------7--------------2--|-(2)-------5-------2----------2--|
A :----5---------5-----------0--0--|-(0)---0-------0---0----------0--|
E :----3---------------------------|---------------------------------|




e :---------------------------------|---------------------------------|
B :---------------------------------|---------------------------------|
G :-(2)-------5-------7-\-\---------|--------------7---------------2--|
D :-(2)-------5-------7-\-\---------|----5---------7---------------2--|
A :-(0)---0-------0-----------------|----5---------5------------0--0--|
E :---------------------------------|----3----------------------------|



    |-------w/bar-------|
e :---------------------------------|
B :---------------------------------|
G :------------------------------2--|  repeat
D :------------------------------2--|
A :-(0)-\-\-\-\------------------0--|
E :--------------\-\-\-\------------|



[ Tab from: http://www.guitartabs.cc/tabs/b/bon_jovi/in_and_out_of_love_tab.html ]
e :---------------------------------|---------------------------------|
B :---------------------------------|---------------------------------|
G :---------7----4------------------|---------------------------------|
D :----5----7----4------------------|---------------------------------|
A :----5----5----2------------------|---------------------------------|
E :----3----------------------------|---------------------------------|



  SOLO:


e :---------------------------------|---------------------------------|
B :------------------------------8--|-(8)--8--8--8--8--7-----------8--|
G :------------------------------7--|-(7)--7--7--7--7--7-----------7--|
D :---------------------------------|---------------------------------|
A :---------------------------------|---------------------------------|
E :---------------------------------|---------------------------------|


                                P.M.
e :---------------------------------|--10p9-----------9---------------|
B :-(8)--8--8--8--8--7-\------------|---------10--12-----10-----------|
G :-(7)--7--7--7--7--7-\------------|------------------------9-~~~----|
D :------------------------------0--|---------------------------------|
A :---------------------------------|---------------------------------|
E :---------------------------------|---------------------------------|


                            P.M.
e :---------------------------------|---------------------------------|
B :------------------------------8--|-(8)--8--8--8--8--7-----------8--|
G :------------------------------7--|-(7)--7--7--7--7--7-----------7--|
D :---------------------------0-----|---------------------------------|
A :---------------------------------|---------------------------------|
E :---------------------------------|---------------------------------|


                                                                     
e :---------------------------------|---------------------------------|
B :-(8)--8--8--8--8--7-\------------|---------------------------------|
G :-(7)--7--7--7--7--7-\------------|-----------------------------7---|
D :---------------------------------|---------5h7---------5h7-5h7-----|
A :---------------------------------|--5--5h7-----5h7-5h7-------------|
E :---------------------------------|---------------------------------|


  |-------w/bar-------|                    sl                sl
e :---------------------------------|--------------------------------|
B :---------------------------------|-----8/10--------------8/10-----|
G :---------------------------------|------==----------------==------|
D :---------------------------------|------==----------------==------|
A :--0-\-\-\-\----------------------|--------------------------------|
E :------------\-\-\-\--------------|--------------------------------|


          sl       sl     sl       sl      sl      sl      sl
e :--------------------------------|---------------------------------|
B :---10---\---8---\---7---\---5-/-|--/-8---\---7---\---5---\---3--\-|
G :---==-------=-------=-------=---|----=-------=-------=-------=----|
D :---==-------=-------=-------=---|----=-------=-------=-------=----|
A :--------------------------------|---------------------------------|
E :--------------------------------|---------------------------------|


    sl      sl    w/bar 
e :---------------------------------|------17-------------------17-------------------------|
B :--\--2---/---10-~~~-------20b22--|-(22)----20-17-------17-20----20-17----17-20h22p20----|
G :-----=-------==------------------|---------------19b20----------------19-------------21-|
D :-----=-------==------------------|------------------------------------------------------|
A :---------------------------------|------------------------------------------------------|
E :---------------------------------|------------------------------------------------------|


                          |---------------steady gliss.---------------|
e :--21b22--(22)--21-~~~-------------|-----------------------------/-/-|
B :----------------------------------|-------------------------/-/-/-/-|
G :----------------------------------|---------------------/-/-/-/-----|
D :------------------------x-\-\-----|---------------x-/-/-/-/---------|
A :------------------------x-\-\-\-\-|-\-\-\-\-------x-/-/-------------|
E :------------------------------\-\-|-\-\-\-\-\-\-\-------------------|



                                                                            Out of lo-                                                                            
 
                                                            |--------w/bar-------|    
e :--12b13rb(12)p8----14b15rb(14)p10-----16b17rb(16)p12-|------------|-----------------|
B :----------------8-----------------10-----------------|-12-\-\-----|-----------------|
G :-----------------------------------------------------|--------\-\-|-----------------|
D :-----------------------------------------------------|------------|-\-\-------------|
A :-----------------------------------------------------|------------|-----\-\---------|
E :-----------------------------------------------------|------------|---------\-\-----|



   -ve                                                   

   P.M.        P.M.           P.M.                       P.M.
e :---------------------------------|---------------------------------|
B :-----7-----------8---------------|--3-----------------------2------|
G :-----7-----------7---------------|--0-----------------------2------|
D :-----7-----------9---------------|--4-----------------------2------|
A :--0-----------0------------0--0--|---------------------0-----------|
E :---------------------------------|---------------------------------|


                                                     

     |-P.M.-|             |-P.M.-|     w/bar        w/bar
e :---------------------------------|---------------------------------|
B :----------7-------8--------------|---------------------------------|
G :----------7-------7--------------|--7-\-\------5--(5)-\-\----------|
D :----------7-------9--------------|--7-\-\------5--(5)-\-\----------|
A :----0--0-----------------0--0----|---------------------------------|
E :---------------------------------|---------------------------------|
                                        Ú                  Ú


                           

     |-P.M.-|             |-P.M.-|
e :---------------------------------|---------------------------------|
B :----------7-------8--------------|--3----------2-------------------|
G :----------7-------7--------------|--0----------2-------------------|
D :----------7-------9--------------|--4----------2-------------------|
A :----0--0-----------------0--0----|----------0----------------------|
E :---------------------------------|---------------------------------|


      love                                                        In -

     |-P.M.-|  P.M.       |-P.M.-|    w/bar         w/bar
e :---------------------------------|---------------------------------|
B :----------7-------8--------------|---------------------------------|
G :----------7-------7--------------|--7-\-\------5--(5)-\-\-------2--|
D :----------7-------9--------------|--7-\-\------5--(5)-\-\-------2--|
A :----0--0------0----------0--0----|------------------------------0--|
E :---------------------------------|---------------------------------|
                                        Ú                  Ú



  

LEGEND:


e :---5h7-----|  =  hammer on

e :---7p5-----|  =  pull off

e :--7-rb(5)--|  =  release bend

e :---5/7-----|  =  slide up

e :---7\5-----|  =  slide down

e :----10-----|
B :----==-----|  =  tremolo picking

      P.M.
e :----6------|  =  palm mute

e :---5-~~~---|  =  vibrato

e :----6sb----|  =  slight bend

     w/bar
e :----6------|  =  whammy bar scooping
       Ú

e :---x-\-\---|  =  pick scrape

      N.H.
e :--12-12----|  =  Natural Harmonics
Comments