Bon Jovi - Have A Nice Day Chords & Tabs

 

Have A Nice Day Chords & Tabs

Bon Jovi Chords & Tabs

Version: 1 Type: Bass Tab

Have A Nice Day Bass Tab

   
Title: Have a nice day
Artist: Bon Jovi
Album: Have a nice day 
Tabber: Steph
Email: cyberbassist@hotmail.com

This tab is not perfect but 97% sure. Enjoy
Standard tuning

intro
    C#  E    A  E     B   C#
G|---------------------------|
D|---------------------------|
A|--444-777-----777-------4\-|
E|-----------555------77-----|


Why you wanna tell me how to live my life?
   C# E  A  B     C#     C# E A  B
G|-------------------r--------------|
D|-------------------e--------------|
A|-4~-7~----------4\-s---4~-7~------|
E|-------5~-7-7~-----t--------5~-77-|

[ Tab from: http://www.guitartabs.cc/tabs/b/bon_jovi/have_a_nice_day_btab.html ]
pre-chorus
   C#               E                 F#                A
G|-----------------------------------------------------------------------|
D|-----------------------------------------------------------------------|
A|-44444444-44444444------------------------------------0000000-00000000-|
E|------------------00000000-00000000-22222222-22222222------------------|

chorus\solo
   C#      A       E       B       X3  F#                  A
G|------------------------------------|------------------------|
D|*----------------------------------*|------------------------|
A|*-44444444--------77777777---------*|----------------4-2-----|
E|----------55555555---------77777777-|-222-222-222-222----5-5-|

end
     C#  E   A   E   B
G|---------------------------|
D|*------------------------*-|
A|*--444-777-----777-------*-|
E|-----------555------77-----|