Bon Jovi - Everyday Chords & Tabs

 

Everyday Chords & Tabs

Bon Jovi Chords & Tabs

Version: 2 Type: Tab 0 ratings
1 star 2 stars 3 stars 4 stars 5 stars
comments

Everyday Tab

   
Everyday 
Bon Jovi

Tabbed by King of Swing

This song is played in normal tuning, and is probably played on a Gibson Flying V 
(at least that's the guitar Ritchie used in the video for this song). I heard the 
song only half an hour ago for the first time so I didn't have the lyrics nor the 
time to transcribe the song perfectly, but eh, it's a start, right?

Fig. 1 (main riff)
E||-----------------------------|
G||-----------------------------|
D||-----------------------------|
A||--0-0-0-0-3-0--0--0--0-3-0---|
E||-----------------------------|


0:19 (2nd guitar) Am			 G
|-----------5----------|-----------3----------|
|--------5-------------|--------3-------------|
|-----5----------------|-----4----------------|
|--7-------------------|--5-------------------|
|----------------------|----------------------|
|----------------------|----------------------|
			Thought I had a lot to prove,

Am                        
-----------5----------||
--------5-------------||
-----5----------------||
--7-------------------||
----------------------||
----------------------||
In my life there's no denying


Pre-chorus (?):
E||-------------------|-------------------|
B||-------------------|-------------------|
G||-------------------|-------------------|
D||--3----------------|--------------5----|
A||--3----------------|--------------5----|
E||--1----------------|--------------3----|
	Goodbye to all my yesterdays,

                    
|-------------------|-------------------|
|-------------------|-------------------|
|-------------------|-------------------|
|--3----------------|----------2--------|
|--3----------------|----------2--------|
|--1----------------|----------0--------|
	Goodbye, so long, I'm on my way.

[ Tab from: http://www.guitartabs.cc/tabs/b/bon_jovi/everyday_tab_ver_2.html ]
Chorus:
  A5                  C5                  G5                
|-------------------|-------------------|-------------------|
|-------------------|-------------------|-------------------|
|--2----------------|--5----------------|-------------------|
|--2----------------|--5----------------|--5----------------|
|--0----------------|--3----------------|--5----------------|
|-------------------|-------------------|--3----------------|


  F5                 E5                                          
-------------------|-------------------|----------------------|
-------------------|-------------------|----------------------|
-------------------|--2----------------|----------------------|
--3----------------|--2----------------|----------------------|
--3----------------|--0----------------|----------3-----3--5--|
--1----------------|-------------------|----------1--0--1--3--|
					I'm not very confident
                                     'bout this last part...


Solo:
|--5------------5----|--7-------------7-----|
|--8b-----------8b---|--10b-----------10b---|
|--------------------|----------------------|
|--------------------|----------------------|
|--------------------|----------------------|
|--------------------|----------------------|


|---------------------|---------------------|
|---------------------|---------------------|
|--4b-----------4b-2--|--4b-----------4b-2--|
|---------------------|---------------------|
|---------------------|---------------------|
|---------------------|---------------------|
Just bend the the string a semi-tone (to the 5th fret) a couple of times.

--------------------------------------------------||
-----10-10----10-10----10-10----10-10----10-10-10-||
--12b------12b------12-------12-------12----------||
--------------------------------------------------||
--------------------------------------------------||
--------------------------------------------------||

|--------------------|
|--12~---------------|
|--14b---------------|
|--------------------|
|--------------------|
|--------------------|
On the same way as the bar before.
                                                              
|--------------------|----------------------|
|--13~---------------|--15~-------17~-------|
|--15b---------------|--17b-------19b-------|
|--------------------|----------------------|
|--------------------|----------------------|
|--------------------|----------------------|
...

|--17~---------------||
|--20b---------------||
|--------------------||
|--------------------||
|--------------------||
|--------------------||
Comments