Bon Jovi - Every Day Chords & Tabs

 

Every Day Chords & Tabs

Bon Jovi Chords & Tabs

Version: 2 Type: Tab 0 ratings
1 star 2 stars 3 stars 4 stars 5 stars
comments

Every Day Tab

   
##################################################################################
# This file is the author's own work and represents their interpretation of the  #
# song. You may only use this file for private study, scholarship, or research.  #
##################################################################################

This was originally Everyday4 on this site, but got corrupted, 
so am re-submitting. apologies.

BON JOVI

EVERYDAY


To All My Fellow Nutter Guitar bashers! (ah come on! You have to be to play a song like this!!!!):

This is my interpretation of the kick ass single by the legendary hard rockers from New Jersey! 
From their New Kick Ass album, Bounce! As you can c I am a freak for them! I have done this to 
the very best of my ability. I might be misleading a bit with the muting timing, but not hard to 
correct yourselves. One or two riffs are missing for the verses, but what the hey!..................
why don't i just stop talking, yeah???
Have fun, dudes..........L8z

Legend:

x = mute

xx = harder mute (but not compulsory)

h = hammer on

p = pull off

b = bend string

vvvvvvvvvvv = vibrato

/ = slide

Intro (Talkbox before chords)

e------------------------------------------------------------------------------------------------------------------
b------------------------------------------------------------------------------------------------------------------
g---------------------------------------xx----------------------------------xx--7-x-7-x-7-x---7-x-7-x-7-xx---------
d------7-x-7-x-7-x---7-x-7-x-7--xx--5-x-5-x-5-x--5-x-5-x-5-xx--7-x-7-x-7-x---7-x-7-x-7-xx---3-x-3-x-3-x----
a------7-x-7-x-7-x---7-x-7-x-7--xx--5-x-5-x-5-x--5-x-5-x-5-xx--5 x-5-x-5-x---5-x-5-x-5-xx---3-x-3-x-3-x----
e------5-x-5-x-5-x---5-x-5-x-5--xx--3-x-3-x-3-x--3-x-3-x-3-xx---------------------------------xx----1-x-1-x-1-x----

e---------------------------------------------------------=
b---------------------------------------------------------=
g------------------xx-----------------------------------=
d--5-x-5-x-5-x-xx----------------------------------=
a--5-x-5-x-5-x-xx----------------------------------=
e--3-x-3-x-3-x-xx----------------------------------=



Verse:


e------------------------------------------------------------------------------------------------------------------
b------------------------------------------------------------------------------------------------------------------
g---------------------------------------xx----------------------------------xx--7-x-7-x-7-x---7-x-7-x-7-xx---------
d------7-x-7-x-7-x---7-x-7-x-7--xx--5-x-5-x-5-x--5-x-5-x-5-xx--7-x-7-x-7-x---7-x-7-x-7-xx---3-x-3-x-3-x----
a------7-x-7-x-7-x---7-x-7-x-7--xx--5-x-5-x-5-x--5-x-5-x-5-xx--5 x-5-x-5-x---5-x-5-x-5-xx---3-x-3-x-3-x----
e------5-x-5-x-5-x---5-x-5-x-5--xx--3-x-3-x-3-x--3-x-3-x-3-xx---------------------------------xx----1-x-1-x-1-x----


     e---------------------------------------------------------=
b---------------------------------------------------------=
g------------------xx-----------------------------------=
d--5-x-5-x-5-x-xx----------------------------------=
a--5-x-5-x-5-x-xx----------------------------------=
e--3-x-3-x-3-x-xx----------------------------------=

cryin......

(repeat c.progression)

      

Pre-Chorus:

e-------------------------------------------------------------------------------------------------------------------
b-------------------------------------------------------------------------------------------------------------------
g-------------------------------------------------------------------------------------------------------------------
d-----3vvvvvvvvvvvvvvvvvvvvv---5vvvvvvvvvvvvvvvvvvv----3vvvvvvvvvvvvvvv--5vvvvvvvvvvvvvvvvvvvvvvvvvv----------------
a-----3vvvvvvvvvvvvvvvvvvvvv---5vvvvvvvvvvvvvvvvvvv----3vvvvvvvvvvvvvvv--5vvvvvvvvvvvvvvvvvvvvvvvvvv----------------
e-----1vvvvvvvvvvvvvvvvvvvvv---3vvvvvvvvvvvvvvvvvvv----1vvvvvvvvvvvvvvv--3vvvvvvvvvvvvvvvvvvvvvvvvvv----------------
        
       

Chorus:
gtr.1:
e-------------------------------------------------------------------------------------------------------------------
b-------------------------------------------------------------------------------------------------------------------
g----------------------------------------------------------------------------------7vvvvvvvvvvvvvvvvvvvvvvvvvvvv----
d---7-vvvvvvvvvvvvvvvvvvvvvvvvvvvv---5vvvvvvvvvvvvvvvvvvvvvvvvvvv---7vvvvvvvvvvvvvvvvvvvvvvvvvvvv-------------------
a---7-vvvvvvvvvvvvvvvvvvvvvvvvvvvv---5vvvvvvvvvvvvvvvvvvvvvvvvvvv---5vvvvvvvvvvvvvvvvvvvvvvvvvvvv-------------------
e---5-vvvvvvvvvvvvvvvvvvvvvvvvvvvv---3vvvvvvvvvvvvvvvvvvvvvvvvvvv---------------------------------------------------

 gtr.2: 
e--- 5vvvvvvvvvvvvvvvvvvvvvvvvvvvv---7vvvvvvvvvvvvvvvvvvvvvvvvvvv----------------------------------------------------
b----8bvvvvvvvvvvvvvvvvvvvvvvvvvv----10bvvvvvvvvvvvvvvvvvvvvvvvv----10rp7--------------------------------------------
g-----------------------------------------------------------------------------------------------9----7---------------
d--------------------------------------------------------------------------------------------------------------------
a--------------------------------------------------------------------------------------------------------------------
e--------------------------------------------------------------------------------------------------------------------
      
    e--------------------------------------------------------------------------------------------------------------------
b--------------------------------------------------------------------------------------------------------------------
g--------------------------------------------------------------------------------------------------------------------
d----3-vvvvvvvvvvvvvvvvvvvvvvvvvvvv--5-vvvvvvvvvvvvvvvvvvvvvvvvvvvvvvv-----------------------------------------------
a----3-vvvvvvvvvvvvvvvvvvvvvvvvvvvv--5-vvvvvvvvvvvvvvvvvvvvvvvvvvvvvvv-----------------------------------------------
e----1-vvvvvvvvvvvvvvvvvvvvvvvvvvvv--3 vvvvvvvvvvvvvvvvvvvvvvvvvvvvvvv-----------------------------------------------

      Gonna live my life              everyday__ 


e--------------------------------------------------------------------------------------------------------------------
b--------------------------------------------------------------------------------------------------------------------
g------------------------------------------------------------------------------------7vvvvvvvvvvvvvvvvvvvvvvvvvvvv---
d---7-vvvvvvvvvvvvvvvvvvvvvvvvvvvv---5vvvvvvvvvvvvvvvvvvvvvvvvvvv-----7vvvvvvvvvvvvvvvvvvvvvvvvvvvv------------------
a---7-vvvvvvvvvvvvvvvvvvvvvvvvvvvv---5vvvvvvvvvvvvvvvvvvvvvvvvvvv-----5vvvvvvvvvvvvvvvvvvvvvvvvvvvv------------------
e---5-vvvvvvvvvvvvvvvvvvvvvvvvvvvv---3vvvvvvvvvvvvvvvvvvvvvvvvvvv----------------------------------------------------

   
e--------------------------------------------------------------------------------------------------------------------------
b--------------------------------------------------------------------------------------------------------------------------
g--------------------------------------------------------------------------------------------------------------------------
d----3-vvvvvvvvvvvvvvvvvvvvvvvvvvvv--5-vvvvvvvvvvvvvvvvvvvvvvvvvvvvvvv-----------------------------------------------------
a----3-vvvvvvvvvvvvvvvvvvvvvvvvvvvv--5-vvvvvvvvvvvvvvvvvvvvvvvvvvvvvvv-----------------------------------------------------
e----1-vvvvvvvvvvvvvvvvvvvvvvvvvvvv--3 vvvvvvvvvvvvvvvvvvvvvvvvvvvvvvv-----------------------------------------------------

      Verse 2:

N.C.
Change---everybodies feelin strange---Never gonna be the same--- Makes you wonder how the

world keeps turnin--

e---------------------------------------------------------------------------------------------------------------------
b---------------------------------------------------------------------------------------------------------------------
g---------------------------------------xx----------------------------------xx--7-x-7-x-7-x---7-x-7-x-7-xx------------
d------7-x-7-x-7-x---7-x-7-x-7--xx--5-x-5-x-5-x--5-x-5-x-5-xx--7-x-7-x-7-x---7-x-7-x-7-xx---3-x-3-x-3-x----
a------7-x-7-x-7-x---7-x-7-x-7--xx--5-x-5-x-5-x--5-x-5-x-5-xx--5 x-5-x-5-x---5-x-5-x-5-xx---3-x-3-x-3-x----
e------5-x-5-x-5-x---5-x-5-x-5--xx--3-x-3-x-3-x--3-x-3-x-3-xx---------------------------------xx----1-x-1-x-1-x-------


   e---------------------------------------------------------=
b---------------------------------------------------------=
g------------------xx-----------------------------------=
d--5-x-5-x-5-x-xx----------------------------------=
a--5-x-5-x-5-x-xx----------------------------------=
e--3-x-3-x-3-x-xx----------------------------------=

    burning


Pre-Chorus 2: 

e-------------------------------------------------------------------------------------------------------------------
b-------------------------------------------------------------------------------------------------------------------
g-------------------------------------------------------------------------------------------------------------------
d-----3vvvvvvvvvvvvvvvvvvvvv---5vvvvvvvvvvvvvvvvvvv----3vvvvvvvvvvvvvvv--5vvvvvvvvvvvvvvvvvvvvvvvvvv----------------
a-----3vvvvvvvvvvvvvvvvvvvvv---5vvvvvvvvvvvvvvvvvvv----3vvvvvvvvvvvvvvv--5vvvvvvvvvvvvvvvvvvvvvvvvvv----------------
e-----1vvvvvvvvvvvvvvvvvvvvv---3vvvvvvvvvvvvvvvvvvv----1vvvvvvvvvvvvvvv--3vvvvvvvvvvvvvvvvvvvvvvvvvv----------------

      
Chorus 2:

e-------------------------------------------------------------------------------------------------------------------
b-------------------------------------------------------------------------------------------------------------------
g----------------------------------------------------------------------------------7vvvvvvvvvvvvvvvvvvvvvvvvvvvv----  
d---7-vvvvvvvvvvvvvvvvvvvvvvvvvvvv---5vvvvvvvvvvvvvvvvvvvvvvvvvvv---7vvvvvvvvvvvvvvvvvvvvvvvvvvvv-------------------
a---7-vvvvvvvvvvvvvvvvvvvvvvvvvvvv---5vvvvvvvvvvvvvvvvvvvvvvvvvvv---5vvvvvvvvvvvvvvvvvvvvvvvvvvvv-------------------
e---5-vvvvvvvvvvvvvvvvvvvvvvvvvvvv---3vvvvvvvvvvvvvvvvvvvvvvvvvvv---------------------------------------------------

 gtr.2: 
e--- 5vvvvvvvvvvvvvvvvvvvvvvvvvvvv---7vvvvvvvvvvvvvvvvvvvvvvvvvvv----------------------------------------------------
b----8bvvvvvvvvvvvvvvvvvvvvvvvvvv----10bvvvvvvvvvvvvvvvvvvvvvvvv----10rp7--------------------------------------------
g-----------------------------------------------------------------------------------------------9----7---------------
d--------------------------------------------------------------------------------------------------------------------
a--------------------------------------------------------------------------------------------------------------------
e--------------------------------------------------------------------------------------------------------------------
   e---------------------------------------------------------------------------------------------------------------------
b---------------------------------------------------------------------------------------------------------------------
g---------------------------------------------------------------------------------------------------------------------
d----3-vvvvvvvvvvvvvvvvvvvvvvvvvvvv--5-vvvvvvvvvvvvvvvvvvvvvvvvvvvvvvv------------------------------------------------
a----3-vvvvvvvvvvvvvvvvvvvvvvvvvvvv--5-vvvvvvvvvvvvvvvvvvvvvvvvvvvvvvv------------------------------------------------
e----1-vvvvvvvvvvvvvvvvvvvvvvvvvvvv--3 vvvvvvvvvvvvvvvvvvvvvvvvvvvvvvv------------------------------------------------

      
e---------------------------------------------------------------------------------------------------------------------
b---------------------------------------------------------------------------------------------------------------------
g------------------------------------------------------------------------------------7vvvvvvvvvvvvvvvvvvvvvvvvvvvv----  
d---7-vvvvvvvvvvvvvvvvvvvvvvvvvvvv---5vvvvvvvvvvvvvvvvvvvvvvvvvvv-----7vvvvvvvvvvvvvvvvvvvvvvvvvvvv-----------------
a---7-vvvvvvvvvvvvvvvvvvvvvvvvvvvv---5vvvvvvvvvvvvvvvvvvvvvvvvvvv-----5vvvvvvvvvvvvvvvvvvvvvvvvvvvv-----------------
e---5-vvvvvvvvvvvvvvvvvvvvvvvvvvvv---3vvvvvvvvvvvvvvvvvvvvvvvvvvv-----------------------------------------------------
[ Tab from: http://www.guitartabs.cc/tabs/b/bon_jovi/every_day_tab_ver_2.html ]
 gtr.2: 
e--- 5vvvvvvvvvvvvvvvvvvvvvvvvvvvv---7vvvvvvvvvvvvvvvvvvvvvvvvvvv------------------------------------------------------
b----8bvvvvvvvvvvvvvvvvvvvvvvvvvv----10bvvvvvvvvvvvvvvvvvvvvvvvv----10rp7----------------------------------------------
g-----------------------------------------------------------------------------------------------9----7-----------------
d----------------------------------------------------------------------------------------------------------------------
a----------------------------------------------------------------------------------------------------------------------
e----------------------------------------------------------------------------------------------------------------------

      
e--------------------------------------------------------------------------------------------------------------------------
b--------------------------------------------------------------------------------------------------------------------------
g--------------------------------------------------------------------------------------------------------------------------
d----3-vvvvvvvvvvvvvvvvvvvvvvvvvvvv--5-vvvvvvvvvvvvvvvvvvvvvvvvvvvvvvv-----------------------------------------------------
a----3-vvvvvvvvvvvvvvvvvvvvvvvvvvvv--5-vvvvvvvvvvvvvvvvvvvvvvvvvvvvvvv-----------------------------------------------------
e----1-vvvvvvvvvvvvvvvvvvvvvvvvvvvv--3 vvvvvvvvvvvvvvvvvvvvvvvvvvvvvvv-----------------------------------------------------

      Middle 8:

e---------------------------------------------------------------------------------------------------------------------
b---------------------------------------------------------------------------------------------------------------------
g----7-vvvvvvvvvvvvvvvvvvvvvvvvvvvv--7-vvvvvvvvvvvvvvvvvvvvvvvvvvvvvv----3-vvvvvvvvvvvvvvvvvvvvvvvvv---5-x------------
d----7-vvvvvvvvvvvvvvvvvvvvvvvvvvvv--7-vvvvvvvvvvvvvvvvvvvvvvvvvvvvvv----3-vvvvvvvvvvvvvvvvvvvvvvvvv---5-x------------
a----5-vvvvvvvvvvvvvvvvvvvvvvvvvvvv--5-vvvvvvvvvvvvvvvvvvvvvvvvvvvvvv----1-vvvvvvvvvvvvvvvvvvvvvvvvv---3-x------------
e---------------------------------------------------------------------------------------------------------------------

 
 N.C. 

 Everyday 


Solo:

e-----5--vvvvvvvvvvvvvvvvvv--/--7--vvvvvvvvvvvvvv----------------------------------------------------------5 vvvvvvvvvvvvvvvv
b-----8b-vvvvvvvvvvvvvvvvv--/--10bvvvvvvvvvvvvvv---------------------------------------------------------8bvvvvvvvvvvvvvvv
g------------------------------------------------------------xx---4r4b4b4br-2---4r4b4b4br-2-------xx------------------------
d------------------------------------------------------------xx---------------------------------------------------------------
a-----------------------------------------------------------------------------------------------------------------------------
e-----------------------------------------------------------------------------------------------------------------------------

e---vvv--/-7-vvvvvvvvvvvvvvvvvvvvvv----10-vvvvvvvvvvvvvvvvvv----15--vvvvvvvvvvvvvvvvvvvvv----17-----------------------
b---vvv--/-10bvvvvvvvvvvvvvvvvvvvv----12bvvvvvvvvvvvvvvvvv-----17bvvvvvvvvvvvvvvvvvvvvv----19bvvvvvvv------------
g------------------------------------------------------------------------------------------------------------------------------
d---------------------------------------------------------------------------------------------------------------------------3x-
a---------------------------------------------------------------------------------------------------------------------------3x-
e---------------------------------------------------------------------------------------------------------------------------1x-

                                                         


Chorus 3:

e-------------------------------------------------------------------------------------------------------------------------------
b-------------------------------------------------------------------------------------------------------------------------------
g----------------------------------------------------------------------------------7vvvvvvvvvvvvvvvvvvvvvvvvvvvv----------------  
d---7-vvvvvvvvvvvvvvvvvvvvvvvvvvvv---5vvvvvvvvvvvvvvvvvvvvvvvvvvv---7vvvvvvvvvvvvvvvvvvvvvvvvvvvv-------------------
a---7-vvvvvvvvvvvvvvvvvvvvvvvvvvvv---5vvvvvvvvvvvvvvvvvvvvvvvvvvv---5vvvvvvvvvvvvvvvvvvvvvvvvvvvv-------------------
e---5-vvvvvvvvvvvvvvvvvvvvvvvvvvvv---3vvvvvvvvvvvvvvvvvvvvvvvvvvv-----------------------------------------------------------

 gtr.2: 
e--- 5vvvvvvvvvvvvvvvvvvvvvvvvvvvv---7vvvvvvvvvvvvvvvvvvvvvvvvvvv-----------------------------------------------------------
b----8bvvvvvvvvvvvvvvvvvvvvvvvvvv----10bvvvvvvvvvvvvvvvvvvvvvvvv----10rp7-----------------------------------------------
g-----------------------------------------------------------------------------------------------9----7----------------------
d---------------------------------------------------------------------------------------------------------------------------
a---------------------------------------------------------------------------------------------------------------------------
e---------------------------------------------------------------------------------------------------------------------------

        

e---------------------------------------------------------------------------------------------------------------------------
b---------------------------------------------------------------------------------------------------------------------------
g---------------------------------------------------------------------------------------------------------------------------
d----3-vvvvvvvvvvvvvvvvvvvvvvvvvvvv--5-vvvvvvvvvvvvvvvvvvvvvvvvvvvvvvv-----------------------------------------------------
a----3-vvvvvvvvvvvvvvvvvvvvvvvvvvvv--5-vvvvvvvvvvvvvvvvvvvvvvvvvvvvvvv-----------------------------------------------------
e----1-vvvvvvvvvvvvvvvvvvvvvvvvvvvv--3 vvvvvvvvvvvvvvvvvvvvvvvvvvvvvvv-----------------------------------------------------

      


e--------------------------------------------------------------------------------------------------------------------------
b--------------------------------------------------------------------------------------------------------------------------
g------------------------------------------------------------------------------------7vvvvvvvvvvvvvvvvvvvvvvvvvvvv---------
d---7-vvvvvvvvvvvvvvvvvvvvvvvvvvvv---5vvvvvvvvvvvvvvvvvvvvvvvvvvv-----7vvvvvvvvvvvvvvvvvvvvvvvvvvvv-----------------
a---7-vvvvvvvvvvvvvvvvvvvvvvvvvvvv---5vvvvvvvvvvvvvvvvvvvvvvvvvvv-----5vvvvvvvvvvvvvvvvvvvvvvvvvvvv-----------------
e---5-vvvvvvvvvvvvvvvvvvvvvvvvvvvv---3vvvvvvvvvvvvvvvvvvvvvvvvvvv-----------------------------------------------------------

 gtr.2: 
e--- 5vvvvvvvvvvvvvvvvvvvvvvvvvvvv---7vvvvvvvvvvvvvvvvvvvvvvvvvvv-----------------------------------------------------------
b----8bvvvvvvvvvvvvvvvvvvvvvvvvvv----10bvvvvvvvvvvvvvvvvvvvvvvvv----10rp7-----------------------------------------------
g-----------------------------------------------------------------------------------------------9----7----------------------
d---------------------------------------------------------------------------------------------------------------------------
a---------------------------------------------------------------------------------------------------------------------------
e---------------------------------------------------------------------------------------------------------------------------

   


e--------------------------------------------------------------------------------------------------------------------------
b--------------------------------------------------------------------------------------------------------------------------
g--------------------------------------------------------------------------------------------------------------------------
d----3-vvvvvvvvvvvvvvvvvvvvvvvvvvvv--5-vvvvvvvvvvvvvvvvvvvvvvvvvvvvvvv-----------------------------------------------------
a----3-vvvvvvvvvvvvvvvvvvvvvvvvvvvv--5-vvvvvvvvvvvvvvvvvvvvvvvvvvvvvvv-----------------------------------------------------
e----1-vvvvvvvvvvvvvvvvvvvvvvvvvvvv--3 vvvvvvvvvvvvvvvvvvvvvvvvvvvvvvv-----------------------------------------------------

      


Chorus 4:

e---------------------------------------------------------------------------------------------------------------------------
b---------------------------------------------------------------------------------------------------------------------------
g----------------------------------------------------------------------------------7vvvvvvvvvvvvvvvvvvvvvvvvvvvv------------
d---7-vvvvvvvvvvvvvvvvvvvvvvvvvvvv---5vvvvvvvvvvvvvvvvvvvvvvvvvvv---7vvvvvvvvvvvvvvvvvvvvvvvvvvvv-------------------
a---7-vvvvvvvvvvvvvvvvvvvvvvvvvvvv---5vvvvvvvvvvvvvvvvvvvvvvvvvvv---5vvvvvvvvvvvvvvvvvvvvvvvvvvvv-------------------
e---5-vvvvvvvvvvvvvvvvvvvvvvvvvvvv---3vvvvvvvvvvvvvvvvvvvvvvvvvvv-----------------------------------------------------------

 gtr.2: 
e--- 5vvvvvvvvvvvvvvvvvvvvvvvvvvvv---7vvvvvvvvvvvvvvvvvvvvvvvvvvv----10vvvvvvvvvvvv------12vvvvvvvvvvvvvv----------
b----8bvvvvvvvvvvvvvvvvvvvvvvvvvv----10bvvvvvvvvvvvvvvvvvvvvvvvv----12bvvvvvvvvvvv------15bvvvvvvvvvvvv----------
g----------------------------------------------------------------------------------------------------------------------------
d----------------------------------------------------------------------------------------------------------------------------
a----------------------------------------------------------------------------------------------------------------------------
e----------------------------------------------------------------------------------------------------------------------------

  I_____________oh I______________Oh I____________________________

e----------------------------------------------------------------------------------------------------------------------------
b----------------------------------------------------------------------------------------------------------------------------
g----------------------------------------------------------------------------------------------------------------------------
d----3-vvvvvvvvvvvvvvvvvvvvvvvvvvvv--5-vvvvvvvvvvvvvvvvvvvvvvvvvvvvvvv-----------------------------------------------------
a----3-vvvvvvvvvvvvvvvvvvvvvvvvvvvv--5-vvvvvvvvvvvvvvvvvvvvvvvvvvvvvvv-----------------------------------------------------
e----1-vvvvvvvvvvvvvvvvvvvvvvvvvvvv--3 vvvvvvvvvvvvvvvvvvvvvvvvvvvvvvv-----------------------------------------------------

    


e----------------------------------------------------------------------------------------------------------------------------
b----------------------------------------------------------------------------------------------------------------------------
g------------------------------------------------------------------------------------7vvvvvvvvvvvvvvvvvvvvvvvvvvvv-----------  
d---7-vvvvvvvvvvvvvvvvvvvvvvvvvvvv---5vvvvvvvvvvvvvvvvvvvvvvvvvvv-----7vvvvvvvvvvvvvvvvvvvvvvvvvvvv-----------------
a---7-vvvvvvvvvvvvvvvvvvvvvvvvvvvv---5vvvvvvvvvvvvvvvvvvvvvvvvvvv-----5vvvvvvvvvvvvvvvvvvvvvvvvvvvv-----------------
e---5-vvvvvvvvvvvvvvvvvvvvvvvvvvvv---3vvvvvvvvvvvvvvvvvvvvvvvvvvv-----------------------------------------------------------

  I___________oh I_______________Oh I______________________________

 gtr.2: 
e--- 5vvvvvvvvvvvvvvvvvvvvvvvvvvvv---7vvvvvvvvvvvvvvvvvvvvvvvvvvv----10vvvvvvvvvvvv------12vvvvvvvvvvvvvv----------
b----8bvvvvvvvvvvvvvvvvvvvvvvvvvv----10bvvvvvvvvvvvvvvvvvvvvvvvv----12bvvvvvvvvvvv------15bvvvvvvvvvvvv----------
g----------------------------------------------------------------------------------------------------------------------------
d----------------------------------------------------------------------------------------------------------------------------
a----------------------------------------------------------------------------------------------------------------------------
e----------------------------------------------------------------------------------------------------------------------------

e----------------------------------------------------------------------------------------------------------------------------
b----------------------------------------------------------------------------------------------------------------------------
g----------------------------------------------------------------------------------------------------------------------------
d----3-vvvvvvvvvvvvvvvvvvvvvvvvvvvv------------------------------------------------------------------------------------------
a----3-vvvvvvvvvvvvvvvvvvvvvvvvvvvv------------------------------------------------------------------------------------------
e----1-vvvvvvvvvvvvvvvvvvvvvvvvvvvv------------------------------------------------------------------------------------------

   


This is as accurate as I can get it, works for me. The riffs in the verse don't sound too hard to
work out, so maybe improvising in some blues scales might help. Couldn't do it myself. 
Happy struming everyone!! 

Richie5 (don't like to leave real name) any questions or stuff, e-mail bonjovi622000@yahoo.co.uk.
Comments