Bon Jovi - Bounce Chords & Tabs

 

Bounce Chords & Tabs

Bon Jovi Chords & Tabs

Version: 2 Type: Tab 0 ratings
1 star 2 stars 3 stars 4 stars 5 stars
comments

Bounce Tab

   
Band: Bon Jovi
Song: Bounce
Written by : Jon Bon jovi, Richie Sambora, Billy Falcon
Album : BOUNCE
tabbed by : Santiago Rodriguez (santiago_srod hotmail.com)
FROM:Maracay, Venezuela

note:this a good rock song with a great effect by the talkbox
Richie is the best with talkbox, he knows how to use it perfectly
This is the next single after "misunderstood" (i heard it)
(november, 4th 2002)... Santiago Rodriguez

Intro:(main riff)
   Eb5   D5    Eb5    G5                    D5            C5
E|------------------------------------------------------------------------|
B|------------------------------------------------------------------------|
G|------------------------------------------------------------------------|
D|--8-8-8-7-7-7-8-8-8-12-12-12-12-12-12-----7-7-7-7-7-7-7--5-5-5-5-5-5-5--|
A|--6-6-6-5-5-5-6-6-6-10-10-10-10-10-10-----5-5-5-5-5-5-5--3-3-3-3-3-3-3--|
E|------------------------------------------------------------------------|x2

Verse:
I've been knocked 
down so many 
times..........
            C5 (with talkbox)
        E|--------------|
        B|--------------|
        G|---5-5---5\---|
        D|---5-5---5\---|
        A|---3-3---3\---|
        E|--------------|x3
         wah wah   wow 

Pre-chorus:

Call it......me, i just...
   Ab5     Bb5
E|---------------|
B|---------------|
G|---------------|
D|--6--------8---|
A|--6--------8---|
E|--4--------6---|


Chorus:(main riff)

bbbbounce, bounce..........
  Eb5   D5    Eb5    G5                    D5            C5
E|------------------------------------------------------------------------|
B|------------------------------------------------------------------------|
G|------------------------------------------------------------------------|
D|--8-8-8-7-7-7-8-8-8-12-12-12-12-12-12-----7-7-7-7-7-7-7--5-5-5-5-5-5-5--|
A|--6-6-6-5-5-5-6-6-6-10-10-10-10-10-10-----5-5-5-5-5-5-5--3-3-3-3-3-3-3--|
E|------------------------------------------------------------------------|x2

Saying with the TALKBOX "bbbbbounce,Bounce" when Jon says "bounce"
playing the main riff


Verse II:

..No games..  i play it hard
           (with Talk box)     
        E|--------------------|
        B|--------------------|
        G|--------------------|
        D|---------it--hard---|
        A|-i--play--3---6-----|
        E|-3---6--------------|

Kicked around......
       C5 (with talkbox)   |(another clean guitar after wah wah wow)
        E|--------------|  |--8-8.-|
        B|--------------|  |--8-8.-|
        G|---5-5---5\---|  |--5-5.-|
        D|---5-5---5\---|  |-------|
        A|---3-3---3\---|  |-------|
        E|--------------|x3|-------|x3
         wah wah   wow 


Pre-chorus:

..tall...u can......me, i just...
  Bb5   Ab5           Bb5   
E|------------------------------|
B|------------------------------|
G|------------------------------|
D|-8-----6--------------8-------|
A|-8-----6--------------8-------|
E|-6-----4--------------6-------|


Chorus2:(main riff)

bbbbounce, bounce..........
  Eb5   D5    Eb5    G5                    D5            C5
E|------------------------------------------------------------------------|
B|------------------------------------------------------------------------|
G|------------------------------------------------------------------------|
D|--8-8-8-7-7-7-8-8-8-12-12-12-12-12-12-----7-7-7-7-7-7-7--5-5-5-5-5-5-5--|
A|--6-6-6-5-5-5-6-6-6-10-10-10-10-10-10-----5-5-5-5-5-5-5--3-3-3-3-3-3-3--|
E|------------------------------------------------------------------------|x2

Saying with the TALKBOX "bbbbbounce,Bounce" when Jon says "bounce"
playing the main riff



solo:

E|--------------------------------------------------------------------------
B|--------------------------------------------------------------------------
G|---------7-7-8-8-8-7-7------------7-7-7-8-8-8-7-7-7-7--------7-7-8-8-7-7-7
D|10-10-10---------------10-10-10-10-------------------10-10-10-------------
A|--------------------------------------------------------------------------
E|--------------------------------------------------------------------------

---------------------------
---------------------------
---------------------------
---------------------------
-10~10~10~--8--10~10~10~---
---------------------------
[ Tab from: http://www.guitartabs.cc/tabs/b/bon_jovi/bounce_tab_ver_2.html ]
--------------------------------------------------------------------------
--------------------------------------------------------------------------
---------7-7-8-8-8-7-7------------7-7-7-8-8-8-7-7-7-7--------7-7-8-8-7-7-7
10-10-10---------------10-10-10-10-------------------10-10-10-------------
--------------------------------------------------------------------------
--------------------------------------------------------------------------
                                                     
-------------------------------------------------------------------|
-------------------------------------------------------------------|
-------------------------------------------------------------------|
-------------------------------------------------------------------|
-10~10~10~--8--10~10~10~-10~10~10~--8--10~10~10~-----3~~~~---------|
-----------------------------------------------------Woooow--------|
                                                    (with talkbox)



Bring it on, I like it rough In your face, I call your bluff.....
         |--8-8.--------8-8.------|
         |--8-8.--------8-8.------|
         |--5-5.--------5-5.------|
         |------------------------|
         |------------------------|
         |------------------------|x4.....
           (This guitar is clean)

It ain't karma, it ain't luck
|----------------------|
|----------------------|
|-5-5---------5--5-----|
|-5-5---------5--5-----|
|-3-3---------3--3-----|
|----------------------|
 wow wow     wow wow
(Now this guitar with TAlkbox)


Me, I just don't give a    bbbbbbbb..... 
|----------------------|
|----------------------|
|-5-5---------5--5-----|
|-5-5---------5--5-----|
|-3-3---------3--3-----|
|----------------------|
 wow wow     wow wow


Chorus 4 and 5:(main riff)

..bbounce, bounce..........
  Eb5   D5    Eb5    G5                    D5            C5
E|------------------------------------------------------------------------|
B|------------------------------------------------------------------------|
G|------------------------------------------------------------------------|
D|--8-8-8-7-7-7-8-8-8-12-12-12-12-12-12-----7-7-7-7-7-7-7--5-5-5-5-5-5-5--|
A|--6-6-6-5-5-5-6-6-6-10-10-10-10-10-10-----5-5-5-5-5-5-5--3-3-3-3-3-3-3--|
E|------------------------------------------------------------------------|x4


Saying with the TALKBOX "bbbbbounce,Bounce" when Jon says "bounce"
playing the main riff


Outro:

..bbounce, bounce..........

  Eb5   D5    Eb5    G5                    D5            C5
E|------------------------------------------------------------------------|
B|------------------------------------------------------------------------|
G|------------------------------------------------------------------------|
D|--8-8-8-7-7-7-8-8-8-12-12-12-12-12-12-----7-7-7-7-7-7-7--5-5-5-5-5-5-5--|
A|--6-6-6-5-5-5-6-6-6-10-10-10-10-10-10-----5-5-5-5-5-5-5--3-3-3-3-3-3-3--|
E|------------------------------------------------------------------------|x2
talkbox: wooow owwwwo woww wow wo wwwoww ow ww ow wowow w oww wow w wwo woww ow wow
(This time don't say BBounce with talkbox)

end:
 bbbbbbbbbbbbbbbb....
  (wowwwwwwwwwww)talkbox

Lyrics:
Bounce:(Jon Bon jovi, Richie Sambora, Billy Falcon)
I been knocked down so many times
Counted out 6, 7, 8, 9
Written off like some bad deal
If you're breathing you know how it feels
Call it karma, call it luck
Me, I just don't give a 

Chorus: 
Bounce, Bounce Nothing's gonna keep me down
Bounce, Bounce Stand up, shout it out
Bounce, Bounce I play hard, I play to win
Count me out, count me in
I'll be bouncing back again

This ain't no game; I play it hard
Kicked around, cut, stitched and scarred
I'll take the hit but not the fall
I know no fear, still standing tall
You can call it karma, call it luck
Me, I just don't give a 

Chorus: 
Bounce, Bounce Nothing's gonna keep me down
Bounce, Bounce Stand up, shout it out
Bounce, Bounce I play hard, I play to win
Count me out, count me in
I'll be bouncing back again

Bounce!

Guitar Solo

Bring it on, I like it rough
In your face, I call your bluff
It ain't karma, it ain't luck
Me, I just don't give a 

Chorus: 
Bounce, Bounce Nothing's gonna keep me down
Bounce, Bounce Stand up, shout it out
Bounce, Bounce I play hard, I play to win
Count me out, count me in
I'll be bouncing back again

Bounce, Bounce 
Nothing's gonna keep me down
Bounce, Bounce Stand up, shout it out
Bounce, Bounce I play hard, I play to win
Count me out, count me in
I'll be bouncing back again 

Enjoy it!.....Disfrutala!
Santiago Rodriguez from Maracay, Venezuela
santiago_srod hotmail.com

BON JOVI COME BACK TO VENEZUELA!!!!! You aren't here since 1995..
Comments