Bon Jovi - Bed Of Roses Chords & Tabs

 

Bed Of Roses Chords & Tabs

Bon Jovi Chords & Tabs

Version: 1 Type: Tab 1 rating
1 star 2 stars 3 stars 4 stars 5 stars
comments

Bed Of Roses Tab

   
#----------------------------------PLEASE NOTE---------------------------------#
#This file is the author's own work and represents their interpretation of the #
#song. You may only use this file for private study, scholarship, or research. #
#------------------------------------------------------------------------------##

Received: by minyos.xx.rmit.oz.au 
From: s902151@minyos.xx.rmit.OZ.AU (Mr.Scary)
Message-Id: 
Subject: TAB: Bon Jovi - bed of roses
To: jamesb@animal-farm.nevada.edu
Date: Sun, 13 Jun 1993 23:48:04 +1000 (EST)
X-Mailer: ELM [version 2.4 PL22]
Mime-Version: 1.0
Content-Type: text/plain; charset=US-ASCII
Content-Transfer-Encoding: 7bit
Content-Length: 6906      


Bon Jovi - Bed Of Roses  
=======================

transcribed by Gary Chapman

Key:
---

 ^   = hammer/pull
 /   = slide
(b)n = bend to fret n
 ~   = vibrato
 \/  = push whammy to lower note a semitone, then release (done quickly) 
( )  = implied notes - optional 


Note:  This was transcribed from the MTV "plugged" version so it may be
       different from the recorded version.  I've done the intro and the
       solo, but none of the fills during the verses.  Some of the lyrics
       may be a bit wrong too.  Anyway...


Chords used:
----------- 
 
   Dm    C   Bb   Am   F
   
E --1----3----1---0----1---
B --3----5----3---1----1---
G --2----5----3---2----2---
D --0----5----3---2----3---
A -------3----1---0----3---
E ---------------------1---


Keyboard arranged for guitar:
----------------------------

E --------------------------------------------------------------------------
B --8--------8--------8--------8--------8--------8--------8--------8--------
G ----10-------10-------10-------10-------10-------10-------10-------10-----
D -------12-------12-------12-------12-------10-------10-------10-------10--
A --------------------------------------------------------------------------
E --------------------------------------------------------------------------


Rhythm fig #1:     Rhythm fig #2:     Rhythm fig #3:

E ---------------  -----------------  --------------------------------------
B ---------------  -----------------  --------------------------------------
G ---------------  -----------------  --------------------------------------
D -----------(5)-  -----------------  --------------------------------------
A -----------(3)-  ---------3-------  --------------------------------------
E --1~--1-3-1-0--  --1~-1-5---1~----  --1~--3(b)5-3(b)5-3(b)5-3-1~----------
                                                   
--- 
[ Tab from: http://www.guitartabs.cc/tabs/b/bon_jovi/bed_of_roses_tab.html ]
Intro:  (with keyboard part played over top)
-----

   rake                               rake
E ---10-12-(b)13-12-10------------------10-12-(b)13-12-10-------------------
B --10-------------------10^13^10------10-----------------13(b)15--10^13----
G -10---------------------------------10------------------------------------
D --------------------------------------------------------------------------
A --------------------------------------------------------------------------
E --------------------------------------------------------------------------

   rake
E ---10-12-(b)13-12-10-----------------------10-12-(b)13-12-10--------------
B --10------------------13(b)15--13^15------10-----------------13(b)15--10^13
G -10---------------------------------14---10-------------------------------
D --------------------------------------------------------------------------
A --------------------------------------------------------------------------
E --------------------------------------------------------------------------


Verse 1:  (Keyboard part played over the top)
-------

Chorus:
------

Verse #2:

Bridge
------

Solo
----
   
E ---------------------------------------------10---------------------------
B ------------------------------------------------13^10-13(b)15~-13(b)15--13
G --------------------------------------------------------------------------
D ---------3-5-5(b)7-5(b)7~-3^5---------------------------------------------
A --5-3-5~----------------------3~--3^5-------------------------------------
E --------------------------------------/5~---------------------------------

                    
                  ||  

E --13(b)15--13~--13-10----10-----------------------------------13-15-(b)17~
B ----------------------13----13-10---10-13-13(b)15~------15-17-------------
G ----------------------------------9------------------/14------------------
D --------------------------------------------------------------------------
A --------------- triplet  triplet  triplet --------------------------------
E --------------------------------------------------------------------------

                                              rake
E --15-13-17(b)18--17--13^15--------------------10-12-(b)13-12-(b)12\/~-----
B ---------------------------13~--13^15--------10---------------------------
G --------------------------------------14~---10----------------------------
D --------------------------------------------------------------------------
A --------------------------------------------------------------------------


Verse 3
-------

Mr.Scary (Gary Chapman)
----------------------------
s902151@minyos.xx.rmit.oz.au
Comments