Bon Jovi - All About Lovin' You Chords & Tabs

 

All About Lovin' You Chords & Tabs

Bon Jovi Chords & Tabs

Version: 2 Type: Tab 0 ratings
1 star 2 stars 3 stars 4 stars 5 stars
comments

All About Lovin' You Tab

   
#----------------------------------PLEASE NOTE---------------------------------#
#This file is the author's own work and represents their interpretation of the #
#song. You may only use this file for private study, scholarship, or research. #
#------------------------------------------------------------------------------#


All About Lovin' you...
bon jovi

tabbed by: e.j.   -->clapton_riff@yahoo.com

just try the two intro tabs,and decide what
sounds best (they are octaves anyway)...
i tried to tab tht part using just an acoustic guitar.

 Intro:
 
E|--------------------------------------------|
B|--------------------------------------------|
G|----------2~~-/5~~--/5--4--2--/4------------|
D|--/5~~---------------------------5~--2bp0---|
A|-------5------------------------------------|
E|--------------------------------------------|

or maybe

E|-----------------------------------------------|
B|-/8~~---10~~-/13~~--/13--12---10--/12--8~~-----|
G|------7-----------------------------------9bp7-|
D|-----------------------------------------------|
A|-----------------------------------------------|
E|-----------------------------------------------|


end the song w/ the G chord.           



...dedicated to my
dear dear Andrea (Rhea)mmmwwwaaahh...! =)
few more days, and it's already ur birthday ^_^


*******************************************************************************************************

*******************************************************************************************************

Date: Wed, 15 Oct 1997 02:20:43 PDT
From: Antti Iiskola 
To: guitar@olga.net
Subject: Ugly - Jon Bon Jovi

UGLY - Jon Bon Jovi
>From "Destination Anywhere" 1997 
Transcribed by Antti Iiskola
               iceman_ai@hotmail.com
               antti.iiskola@mbnet.fi

  Riff 1:
   .          .           .          .           .
e |---------|----------------------------------------------|
B |-------7-|-10-------7----------7--10-------7----------7-|
G |--6h-9---|-----6h-9----9--6h-9--------6h-9----9--6h-9---|
D |---------|----------------------------------------------|
A |---------|----------------------------------------------|
E |---------|----------------------------------------------|

    .           .          .           .
e |----------------------------------------------|
B |-10-------7----------7------------------------|
G |-----6h-9----9--6h-9--------------------------|
D |-----------------------W7---------------------|     W = whammy bar 
A |----------------------------------------------|     . = quarter notes
E |----------------------------------------------|



[ Tab from: http://www.guitartabs.cc/tabs/b/bon_jovi/all_about_lovin_you_tab_ver_2.html ]
Verse chords:
F#m E Dmaj7 Dmaj7 x3  F#m E A A  (Or is it Dmaj7 1st time then A ?)

Chorus:
D E E F#m Dmaj7 E F#m
D E E F#m Dmaj7 Dmaj7 E E

Chords:
F#m   244222
E     022100
Dmaj7 xx0222 or 557675 (I think the guitar plays also xx0202
                        in kind of a "funky" way with xx0222)
A     x02220 
D     xx0232  

*******************************************************************************************************

*******************************************************************************************************




BON JOVI - ALL ABOUT LOVIN' YOU
  from the album "Bounce"


Intro:
E|-------|-------|---------------------|------------|
B|-8~~---|-/10~~-|-/13~-12h13-12-10-12-|-8~---------|
G|-----7-|-------|---------------------|----7h9-7~~-|
D|-------|-------|---------------------|------------|
A|-------|-------|---------------------|------------|
E|-------|-------|---------------------|------------|


Solo:
E|---------|---------|-------------|-------------|
B|-8-8-8-8-|---------|-10-10-10-10-|-10-10-10-10-|
G|---------|-7-7-7-7-|-------------|-------------|
D|---------|---------|-------------|-------------|
A|---------|---------|-------------|-------------|
E|---------|---------|-------------|-------------|


Chordformations & Abbrevations:
   G   Em  F   C   D   Bm  Am  Cm
E  3   0   1   0   2   2   0   3
B  0   0   1   1   3   3   1   5
G  0   0   2   0   2   4   2   4
D  0   2   3   2   0   4   2   4
A  2   2   3   3   x   2   0   3
E  3   0   1   x   x   x   x   x

h    - hammer on
/    - slide up
~    - vibrato
N.C. - No Chords

---------------------------------------------------------------------
Transcripted by Mareike E. (http://www.bruce-springsteen.tk)
For more questions and corrections email me at mybrucesite@yahoo.com


*******************************************************************************************************

*******************************************************************************************************

song-all about loving you (intro)

artist-bon jovi
album-bounce

 intro chords
G D F C

 intro lead guitar
E|-----------|-----------|-----------|-----------|
B|-----------|-----------|-----------|-----------|
G|-0---------|2----------|5---5-4-2-4|-0------2-0|
D|----------0|----------0|-----------|-----------|
A|-----------|-----------|-----------|-----------|
E|-----------|-----------|-----------|-----------|



cool song i dont know if it is all right but it sounds good 
comments my email is yobbos_rule@hotmail.com

Comments