Bombshell - Grandmas Car Chords & Tabs

 

Grandmas Car Chords & Tabs

Bombshell Chords & Tabs

Version: 1 Type: Tab 0 ratings
1 star 2 stars 3 stars 4 stars 5 stars
comments

Grandmas Car Tab

                     Grandma's Car
            Chris Stephens and Tim Cameron

 * Palm Mute

 Intro                                 
 
 ---------------------------------------------------
 ---------------------------------------------------
 ---------------------------------------------------
 --7-7-7-7-7-7-7-7-7-0-0-5-0-0-4-0-2-2-2-2-2-2-2-2--
 --5-5-5-5-5-5-5-5-----------------0-0-0-0-0-0-0-0--
 --*-*-*-*-*-*-*-*-----------------*-*-*-*-*-*-*-*--

 ---------------------------------------------------
 ---------------------------------------------------
 ---------------------------------------------------
 -2-0-0-4-0-0-5-0-4-4-4-4-4-4-4-4-4-0-0-5-0-0-7-0---
 -----------------2-2-2-2-2-2-2-2-------------------
 -----------------*-*-*-*-*-*-*-*-------------------
[ Tab from: http://www.guitartabs.cc/tabs/b/bombshell/grandmas_car_tab.html ]
 ---------------------------------
 ---------------------------------
 ---------------------------------
 -----------------0-0-2-0-4-5-4---
 -5-5-5-5-5-5-5-5-----------------
 -3-3-3-3-3-3-3-3-----------------
  * * * * * * * *
 
 Chorus
 
 ------------------------------------------------
 ------------------------------------------------
 ------------------------------------------------
 -7-7-7-7-7-7-7-7-4-4-4-4------------------------
 -5-5-5-5-5-5-5-5-2-2-2-2-5-5-5-5----------------
 -------------------------3-3-3-3----------------

 Solo!!

 ------------------------------------------------
 ------------------------------------------------
 ------------------------------------------------
 -----4-----7-----5-----4-----7-----5------------
 -5-5---5-5---5-5---5-5---5-5---5-5--------------
 ------------------------------------------------

 ------------------------------------
 ------------------------------------
 -7-7---9-9---4-4--------------------
 ------------------------------------
 -5-5---7-7---2-2--5-5-5-5-5-5-5-5---
 ------------------3-3-3-3-3-3-3-3---

 And that's how you play "Grandma's Car" originally entitled-- "Untitled: Wrecked you Grandma's Car"

Comments