Bombed Out Priests - Succubus Chords & Tabs

 

Succubus Chords & Tabs

Bombed Out Priests Chords & Tabs

Version: 1 Type: Tab 0 ratings
1 star 2 stars 3 stars 4 stars 5 stars
comments

Succubus Tab

Bombed Out Priests
Succubus


Intro/verse riff

Guitar 1
----------------------------------------------------------------------
----------------------------------------------------------------------
----------------------------------------------------------------------
----------2---------------2---------------2----------5-5-5--4-4-4-----
------2-------2h3-----2-------2h3-----2-------2h3----3-3-3--5-5-5-----
--0-0---0---0-----3-3---3---3-----5-5---5---5-------------------------
pm* *   *   *     * *   *   *     * *   *   *        * *    * *



Guitar 2
----------------------------------------------------------------------
----------------------------------------------------------------------
----------------------------------------------------------------------
----------5---------------5---------------5----------5-5-5--4-4-4-----
------5-------5h7-----5-------5h7-----5-------5h7----3-3-3--5-5-5-----
--0-0---0---0-----3-3---3---3-----5-5---5---5-------------------------
pm* *   *   *     * *   *   *     * *   *   *        * *    * *


Chorus
------------------------12--------------------------------------------
------------------------15b17-------------------------12--------------
------------------------------------------------------14b16-----------
--5-5-5-5-7-7-7-----------------5-5-5-5-7-7-7-------------------------
--3-3-3-3-5-5-5-5-2-2-2-2-2-2-2-3-3-3-3-5-5-5-5-2-2-2-2-2-2-2---------
----------------3-0-0-0-0-0-0-0---------------3-0-0-0-0-0-0-0---------


------------------------12--------------------------------------------
------------------------15b17-----------------------------------------
--------------------------------------------------------8-8-8-8-------
--5-5-5-5-7-7-7-----------------5-5-5-5-5-5-5-5-7-7-7-7-9-9-9-9-------
--3-3-3-3-5-5-5-5-2-2-2-2-2-2-2-3-3-3-3-3-3-3-3-5-5-5-5-6-6-6-6-------
----------------3-0-0-0-0-0-0-0-------------------------7-7-7-7-------



middle

guitar 1
----------------------------------------------------------------------
----------------------------------------------------------------------
----------------------------------------------------------------------
----------------------------------------------------------------------
------2-2---2-2---2-2-----5-5---4-4-4-4-7-----------------------------
--0-0-0-0-0-0-0-0-0-0-3-3-3-3-3-6-6-6-6-5-----------------------------
pm* *     *     *     * *     *          

[ Tab from: http://www.guitartabs.cc/tabs/b/bombed_out_priests/succubus_tab.html ]
guitar 2
----------------------------------------------------------------------
----------------------------------------------------------------------
----------------------------------------------------------------------
----------------------------------------------------------------------
--------------------------------------ph------------------------------
--0-0-0-0-0-0-0-0-0-0-0-0-0-0-0-0-0-0-3~------------------------------
pm* * * * * * * * * * * * * * * * * *


solo
--12----12----12----12----12----12----12------------------------------
--15b18-15b18-15b18-15b18-15b18-15b18-15b18---------------------------
----------------------------------------------------------------------
----------------------------------------------------------------------
----------------------------------------------------------------------
----------------------------------------------------------------------

--15-12-12-12-14-12-12-12-15-12-12-12-17-12-12-12---------------------  x2
----------------------------------------------------------------------
----------------------------------------------------------------------
----------------------------------------------------------------------
----------------------------------------------------------------------
----------------------------------------------------------------------

--17b19-17b19-17b19--15h17p15s14h15p14s12h15p12-----------------------
------------------------------------------------14b16~----------------
----------------------------------------------------------------------
----------------------------------------------------------------------
----------------------------------------------------------------------
----------------------------------------------------------------------

----------------------------------------------------------------------
--12h15p12----12------------------------------------------------------
-----------14----14-12------------------------------------------------
-----------------------14-12-14b15r14-12------------------------------
-----------------------------------------14---------------------------
---------------------------------------------12~----------------------

---random chromatic sclaes as fast as you can-------------------------
----------------------------------------------------------------------
----------------------------------------------------------------------
----------------------------------------------------------------------
----------------------------------------------------------------------
----------------------------------------------------------------------

------------------------------------------------------------12-15-20b-
------------------------------------------------------12-15-----------
-------------------------------------------------12-14----------------
-------------------------------12----12-14-12-14----------------------
--------------12---12-14-12-14----14----------------------------------
--12-15-12-15----15---------------------------------------------------
pm all,gradualy release


chorus again and were done :)
Sean
Comments