Bombed Out Priests - Scb Chords & Tabs

 

Scb Chords & Tabs

Bombed Out Priests Chords & Tabs

Version: 1 Type: Tab 0 ratings
1 star 2 stars 3 stars 4 stars 5 stars
comments

Scb Tab

Band: Bombed Out Priests
Song: SCB

intro (pad plays high part, sean plays low)
-------------------------------------------------------------------------------------------------
-------------------------------------------------------------------------------------------------
------7----------------------------------------------------------------------------------------
--0---7--8---7-----8---7---5---7--5--4-----5---7----------------------------------------
--0------8---7-----8---7---5---7--5--4-----5---7----------------------------------------
-------------------------------------------------------------------------------------------------
[ Tab from: http://www.guitartabs.cc/tabs/b/bombed_out_priests/scb_tab.html ]
verse chords
-------------------------------------------------------------------------------------------------
-------------------------------------------------------------------------------------------------
-------------------------------------------------------------------------------------------------
--7---10---7---6---7--10--7---5-----------------------------------------------------------
--5---8----5---5---5--8---5---3------------------------------------------------------------
-------------------------------------------------------------------------------------------------

chorus
-------------------------------------------------------------------------------------------------
-------------------------------------------------------------------------------------------------
----7-------------------------------------------------------------------------------------------
----7----5-----8-----7------------------------------------------------------------------------
----5----5-----8-----7------------------------------------------------------------------------
---------3-----6-----5------------------------------------------------------------------------

chorus end
-------------------------------------------------------------------------------------------------
-------------------------------------------------------------------------------------------------
--pm---------pm--------pm---------pm----------------------------------------------------
--*-*--------*-*-------*-*--------*-*----------------------------------------------------
--7-7---7----7-7---7---7-7---7----7-7--8------------------------------------------------
--5-5---5----5-5---5---5-5---5----5-5--6------------------------------------------------

the solos pad's domain, so iv got no idea.
Sean
Comments