Bombed Out Priests - Crimson Walls Chords & Tabs

 

Crimson Walls Chords & Tabs

Bombed Out Priests Chords & Tabs

Version: 1 Type: Tab 0 ratings
1 star 2 stars 3 stars 4 stars 5 stars
comments

Crimson Walls Tab

Bombed out Priests
Crimson Walls

Intro Riff (dist) (w/harmony up in thirds)
-------------------------------------------------------------
-------------------------------------------------------------
-------------------------------------------------------------
-------7-----5-----------------------------------------------
-------------------8-----7-----5-h-7-------------------------
---5-5---5-5---5-5---5-5---5-5-------------------------------

[ Tab from: http://www.guitartabs.cc/tabs/b/bombed_out_priests/crimson_walls_tab.html ]
Bridge (clean)
-------------------------------------------------------------
-------------------------------------------------------------
----------11-------7-------9---------------------------------
-------9--------5-------7------------------------------------
----7--------3-------5---------------------------------------
-------------------------------------------------------------

Chorus (dist)

-------------------------------------------------------------
-------------------------------------------------------------
-------5-----------------5------5/-7/-9/-11-----------------
--2----5----5----4---2---5---5-------------------------------
--2----3----5----4---2---3---5--3/-5/-7/--9-----------------
--0---------3----2---0-------3-------------------------------


Breakdown

-------------------------------------------------------------
-------------------------------------------------------------
--2-2---2-2---2-2---2-2----5-5--5-5--7-7--7-7----------------
--2-2---2-2---2-2---2-2----5-5--5-5--7-7--7-7----------------
--0-0---0-0---0-0---0-0----3-3--3-3--5-5--5-5----------------
-------------------------------------------------------------

Cant be arsed tabing the solo :)
Sean xx
Comments