Bokomolech - Coal Chords & Tabs

 

Coal Chords & Tabs

Bokomolech Chords & Tabs

Version: 2 Type: Tab 0 ratings
1 star 2 stars 3 stars 4 stars 5 stars
comments

Coal Tab

Hello  bastards!!!!!!!!!!!
My name is George i am from orhomenos GREECE,GREECE
  BOKOMOLECH - COAL (Jet Lag)

bass
G------------------------------------------------------|
D------------------------------------------------------|
A- 55555/777777/33333 3----------55555-----------------|
E- ---------------------5-33333-5----------------------|

do it this until the end
[ Tab from: http://www.guitartabs.cc/tabs/b/bokomolech/coal_tab_ver_2.html ]
GUITAR
it has only a solo
e------------------|------------------------------------|
B------------------|------------------------------------|
G-----7---7--------|-7---7---------7-9-9-9b11-7-9-7-----|
D-7-9---9---9-7----|---9---9-7----------------------9-7-|
A---------------10-|-----------10-----------------------|
E------------------|------------------------------------|


Where are my feet?
I'll take an order and have some wheat
it's probably deceitful
but i can't have more than a mouthful
fascinate my love
you know we fit like hand in glove
the fastest wheels in town
get mad but never frown
(the darkest winter of my soul and i don't even have some COAL)


now bastard where you stand
holding my treasure in your hand
your thoughts are so full of danger
your safety is so full of danger...
THE DARKEST WINTER OF MY SOUL AND I DON'T EVEN HAVE SOME COAL
Comments