Bohemia Suburbana - Overol Chords & Tabs

 

Overol Chords & Tabs

Bohemia Suburbana Chords & Tabs

Version: 1 Type: Tab 0 ratings
1 star 2 stars 3 stars 4 stars 5 stars
comments

Overol Tab

   
---EL OVEROL---
(BOHEMIA SUBURBANA)
    GUATEMALA
TRANSCRIPCION: MARIO JOSE BARCENAS DE LEON (MARIO_BARCA@starmedia.com/JOSE2@guatemala.com) 
ACORDES Y PUNTEOS
NOTA:SI SE HA OIDO LA CANCION YA SE SABE DONDE VAN LOS PUNTEOS 
----INTRO-----
e-----12----10----8----7--5----3---1---0----------------------------
B------------------------------------------3----0--1----------------
G--12----10-----9----7---5---4----2---0-----------------------------
D----------------------------------------3----0----2----------------
A-------------------------------------------------------------------
E------------------------------------------------------------------- 

e-----5-----5---0---5---5/9---5----
B-5/7---7-7---7---5---5-----5---5--
G---------------------------------- CONTINUO
D----------------------------------
A----------------------------------
E----------------------------------

      f#m          A
CUBIERTO CON VELOS
      f#m          A
MIRANDOTE ATRAVEZ
      f#m          A
DE ESPEJOS QUEBRADOS 
      f#m            A
NO HAY MAS QUE CIELOS NUBLADOS

C            F              Dm Am
COMO PUEDE UN HOMBRE MUERTO
C            F            Dm Am
SEMBRAR SEMILLAS EN UN HUERTO
C            F        Dm Am
Y NO ENSUCIARSE EL OVEROL
C            F        Dm Am
Y NO QUEMARSE CON EL SOL 

 f#m              A
TU CUERPO DESNUDO
 f#m            A
PENSANDOTE OTRA VEZ
 f#m              A
EN SUEÑOS MOJADOS
 f#m                   A
NO EXISTEN DESEOS FRUSTRADOS
[ Tab from: http://www.guitartabs.cc/tabs/b/bohemia_suburbana/overol_tab.html ]
C            F              Dm Am 
UN TREN QUE NO INTENTO LLEGAR
C            F              Dm    Am
MIL SIRENAS QUE SE AHOGARON EN EL MAR
C                F   Dm Am
ENSUCIARON SU OVEROL
C       F           Dm Am
SE QUEMARON CON EL SOL 

  f#m              A
ROBANDO MAIZALES 
   f#m               A
EL CUERVO ESTA FELIZ
  f#m              A
ATADO A UN GOBIERNO
         f#m           A
QUE,PROMETE CASTIGOS ETERNOS

C            F            Dm Am
EN LA CALLE MUERE UN PERRO
C      F            Dm   Am
PERO NADIE VA A SU ENTIERRO
C     F            Dm Am
LE ROBARON SU OVEROL
C        F            Dm Am
LO QUEMARON CON  EL SOL 

 f#m                 A
CUBIERTO CON TIERRA
f#m                    A
UN CUERPO ES TAN NORMAL
f#m                 A
ALIMENTANDO GUSANOS
     f#m                 A
QUE,SOÑARON SER SERES HUMANOS

C           F              Dm Am
COMO PUEDE UN HOMBRE MUERTO
C        F              Dm Am
SEMBRAR SEMILLAS EN UN HUERTO
C        F            Dm Am
Y NO ENSUCIARSE EL OVEROL
C        F            Dm Am
Y NO QUEMARSE CON EL SOL ,UH..

C        F            Dm Am
C        F            Dm Am
C        F            Dm Am -INTRO-(SOLO PUNTEO)                      
C        F            Dm Am
C        F            Dm Am
f#m -FIN-

Comments