Bodyrockers - I Like The Way Chords & Tabs

 

I Like The Way Chords & Tabs

Bodyrockers Chords & Tabs

Version: 5 Type: Tab 0 ratings
1 star 2 stars 3 stars 4 stars 5 stars
comments

I Like The Way Tab

   
Song: I Like The Way
Artist/Band: Bodyrockers
Tabbed By: *'-'*
Tuning: E B G D A E

This is a really easy and catchy song, i started playing guitar only a few weeks ago and
even i can play it :}  The whole song is pretty much the same riff over and over so it
will be a sinch to learn.
[ Tab from: http://www.guitartabs.cc/tabs/b/bodyrockers/i_like_the_way_tab_ver_5.html ]
e|------------------------------------------|
B|------------------------------------------|
G|------------------------------------------|
D|-4-0-4-4-7--4-0-4-4-7--4-0-4-4-7-9-9-7----|
A|-2-0-2-2-5--2-0-2-2-5--2-0-2-2-5-7-7-5----|
E|------------------------------------------|

You play this riff thru the verse then just before the chorus it goes

e|------------------------------------------|
B|------------5---------5~------------------|
G|------------------------------------------|
D|-4-0-4-4-7----9-7-9-7---------------------|
A|-2-0-2-2-5----7-5-7-5---------------------|
E|------------------------------------------|

Thats all there is to it :>  i really hope this improved version gets in coz my original
tab got rejected

Cheers!
Comments