Bodyrockers - I Like The Way Chords & Tabs

 

I Like The Way Chords & Tabs

Bodyrockers Chords & Tabs

Version: 4 Type: Tab 0 ratings
1 star 2 stars 3 stars 4 stars 5 stars
comments

I Like The Way Tab

Bodyrockers: I like the way (you move)

This is a really great song and its so easy to play.
This is a good one to play if your a begginer.
          
         PUT YOUR AMPS VOLUME UP FULL THEN PLAY THIS ONE!
[ Tab from: http://www.guitartabs.cc/tabs/b/bodyrockers/i_like_the_way_tab_ver_4.html ]
   Main Riff
e|---------------------------------------------------------------------|
b|---------------------------------------------------------------------|
g|---------------------------------------------------------------------|    
d|---------------------------------------------------------------------|
a|-4-4-0-4/7--4-4-0-4/7--9-9-9-7-7-7--4-4-0-4/7--4-4-0-4/7--9-9-9-7-7-7|
e|-2-2-0-2/5--2-2-0-2/5--7-7-7-5-5-5--2-2-0-2/5--2-2-0-2/5--7-7-7-5-5-5|

e|---------------------------------------------------------------------|
b|---------------------------------------------------------------------|
g|---------------------------------------------------------------------|    
d|---------------------------------------------------------------------|
a|-4-4-0-4/7--4-4-0-4/7--9-9-9-7-7-7--9-9-9-7-7-7-9-9-9-9-9-9-9-9-9----|
e|-2-2-0-2/5--2-2-0-2/5--7-7-7-5-5-5--7-7-7-5-5-5-7-7-7-7-7-7-7-7-7----|

 And thats it, Thanks!
 Enjoy!
Comments