Bodyjar - Underwater Chords & Tabs

 

Underwater Chords & Tabs

Bodyjar Chords & Tabs

Version: 3 Type: Tab 0 ratings
1 star 2 stars 3 stars 4 stars 5 stars
comments

Underwater Tab

Bodyjar 
Underwater

Intro
Guitar 1
e--------------------------------------------------------------------------
B--------------------------------------------------------------------------
G--------------------------------------------------------------------------
D------------8-----------8----------5--------------5--8----x2--------------
A---8--5--6-----8--5--6-------8--6-----8--6--6--8--------------------------
E--------------------------------------------------------------------------
--
Guitar 2
e--------------------------------------------------------------------------
B--------------------------------------------------------------------------
G---8-8-8-8-8---5-5-5-5-5--------------------------------------------------
D---8-8-8-8-8---5-5-5-5-5----3-3-3-3-3------6-6-6-6-6------x2--------------
A---6-6-6-6-6---3-3-3-3-3----3-3-3-3-3------6-6-6-6-6----------------------
E----------------------------1-1-1-1-1------4-4-4-4-4----------------------

Verse
e--------------------------------------------------------------------------
B--------------------------------------------------------------------------
G---8-8-8-8-8---8-8-8-8-8--------------------------------------------------
D---8-8-8-8-8---8-8-8-8-8---6-6-6-6-6---3-3-3-3-3----8-8-8-8----x2---------
A---6-6-6-6-6---5-5-5-5-5---6-6-6-6-6---3-3-3-3-3----8-8-8-8---------------
E---------------------------4-4-4-4-4---1-1-1-1-1----6-6-6-6---------------

Pre Chorus
e--------------------------------------------------------------------------
B--------------------------------------------------------------------------
G--------------------------------------------------------------------------
D---6-6-6-6-6---6-6-6-6-6---6-6-6-6-6---8-8-8-8-8--------------------------
A---6-6-6-6-6---6-6-6-6-6---6-6-6-6-6---8-8-8-8-8--------------------------
E---4-4-4-4-4---3-3-3-3-3---4-4-4-4-4---6-6-6-6-6--------------------------
[ Tab from: http://www.guitartabs.cc/tabs/b/bodyjar/underwater_tab_ver_3.html ]
Chorus
e--------------------------------------------------------------------------
B--------------------------------------------------------------------------
G---8-8-8-8--------------5-5-5-5-----------------------------------------8-
D---8-8-8-8---8-8-8-8----5-5-5-5----6-6-6-6----8-8-8-8----3-3-3-3---6-6--8-
A---6-6-6-6---8-8-8-8----3-3-3-3----6-6-6-6----8-8-8-8----3-3-3-3---6-6--6-
E-------------6-6-6-6---------------4-4-4-4----6-6-6-6----1-1-1-1---4-4----

Bridge
e--------------------------------------------------------------------------
B--------------------------------------------------------------------------
G----------------------------------------------------------------6-6-6-6---
D----------------------------------------------------------------6-6-6-6---
A---8--6--6---8--10-10---11--13---8--6--6---8--10--10---11--13---4-4-4-4---
E--------------------------------------------------------------------------

End Bit
Guitar 1
e--------------------------------------------------------------------------
B-------8-9-10-9-8---------------------------------------------------------
G---8-8------------8-------------------------------------------------------
D--------------------------------------------------------------------------
A--------------------------------------------------------------------------
E--------------------------------------------------------------------------

Guitar 2
e--------------------------------------------------------------------------
B--------------------------------------------------------------------------
G---8-8-8-8--8-8-8-8--5-5-5-5----------------------------------------------
D---8-8-8-8--8-8-8-8--5-5-5-5--6-6-6-6-------------------------------------
A---6-6-6-6--5-5-5-5--3-3-3-3--6-6-6-6-------------------------------------
E------------------------------4-4-4-4-------------------------------------


Order

Intro
Verse
Pre Chorus
Chorus
Intro
Verse
Pre Chorus
Chorus
Bridge
Pre Chorus 
Chorus
End Bit 


That's it. Just listen to the song and you shouldn't have any problems.
E-mail any corrections to me at Jarryd_h@hotmail.com
Comments