Bodyjar - Not The Same Chords & Tabs

 

Not The Same Chords & Tabs

Bodyjar Chords & Tabs

Version: 1 Type: Tab 0 ratings
1 star 2 stars 3 stars 4 stars 5 stars
comments

Not The Same Tab

Artist: BodyJar
Song: Not the Same
Tabbed by: Nina Mooruth
E-mail: Calaforniadude@hotmail.com

This is such a cool song, i heard it on the Tony Hawks Pro Skater 3 game and thought it was amazing, 
and decided to tab it. This is actually my 1st tab so it might not be 100% correct but it sounds spot on!! 
If u have any corrections or changes then mail me (address at the top), and i'll be happy to sort it out!!! 
ENJOY!!!!!!


Standard Tuning EADGBE

Guitar 1- Intro/Chorus Riff

E|---------------------------
B|---------------------------
G|--9-9-9-9-13-11-9-8---------    x8
D|----------------------------
A|----------------------------
E|----------------------------

In the beginning while guitar 1 plays this riff, guitar 2 plays these chords,
the number of strums probably isn't right, but listen to the song and you'll know:

Guitar2- Intro

E|----------------------------------------------------------------------------------------
B|----------------------------------------------------------------------------------------
G|----------------------------------------------------------------------------------------
D|-14-14-14-14-14-14-14-14|10-10-10-10-10-10-10-10-11-11-11-11-11-11-11-11-7-7-7-7-7-7-7-7 
A|-14-14-14-14-14-14-14-14|10-10-10-10-10-10-10-10-11-11-11-11-11-11-11-11-7-7-7-7-7-7-7-7
E|-14-14-14-14-14-14-14-14|8--8--8--8--8--8--8--8--9--9--9--9--9--9--9--9-5-5-5-5-5-5-5-5

Verse- x2

E|-------------------------------------------------------------------------------------
B|------------------------------------------------------------------------------------
G|------------------------------------------------------------------------------------
D|-14-14-14-14-14-14-14-14|6-6-6-6-6-6-6-6--11-11-11-11-11-11-11-11--7-7-7-7-7-7-7-7--
A|-14-14-14-14-14-14-14-14|6-6-6-6-6-6-6-6--11-11-11-11-11-11-11-11--7-7-7-7-7-7-7-7--
E|-12-12-12-12-12-12-12-12|4-4-4-4-4-4-4-4--9--9--9--9--9--9--9--9---5-5-5-5-5-5-5-5-

Bridge
[ Tab from: http://www.guitartabs.cc/tabs/b/bodyjar/not_the_same_tab.html ]
E|--------------------------------------------------------------
B|--------------------------------------------------------------
G|--------------------------------------------------------------         x2
D|--------------------------------------------------------------        
A|-11-11-11-11|-10-10-10-10-|4-4-4-4-4-4-4-4-------------------
E| -9--9--9--9--|--8--8--8--8---|2-2-2-2-2-2-2-2---------------------

Chorus x2

E|--------------------------------------------------------------------------------------
B|--------------------------------------------------------------------------------------
G|--------------------------------------------------------------------------------------
D|-9--7-7-7-7|14-14-14-14|11-11-11-11|7-7-7-7-7--7-7-7-7-7|14-14-14-14|4-4-4-4-4-4-4
A|-9--7-7-7-7|14-14-14-14|11-11-11-11|7-7-7-7-7--7-7-7-7-7|14-14-14-14|4-4-4-4-4-4-4
E|-7--5-5-5-5|12-12-12-12|9---9---9--9-|5-5-5-5-5--5-5-5-5-5|12-12-12-12|2-2-2-2-2-2-2

Then Play: Intro x1
	        Verse x2
	        Bridge x2

Then Play Chorus x2 (2nd time keep strumming the last chord, listen to song to get the timing)

Guitar 1 then comes back to play:

Guitar1- Solo x4

D|-6-6-6-6-6-6-6-6-9-9-11-14-9-9-11-14| |14-14-14-11-9-11-|

	Play this part 4 times   	play this on 4th time only aswell


While Guitar1 is playing this riff, Guitar 2 plays these chords:

Guitar2- Chords x5

E|-------------------------------------------------------------
B|-------------------------------------------------------------
G|-------------------------------------------------------------
D|-6-6-6-6-6-6-6-6--9-9-9--7|--7-7-7-7---------------------
A|-6-6-6-6-6-6-6-6--9-9-9--7|--7-7-7-7---------------------
E|-4-4-4-4-4-4-4-4--7-7-7--5|--5-5-5-5---------------------
	Play this 5 times      Play this 5th time only aswell

Then Play: Bridge x2

Guitar1 comes back to play another solo:

Guitar1- Solo

E|--------12------------------------------------------------12----------------------------
B|-10--9----9-10-9---------10-9-12-14-12-9---------10--9-------=10--9------9--12----------
G|--------------------9---9-----------------9---9---------9-------------9---------------
D|-----------------------------------------------------------------------------------------
A|----------------------------------------------------------------------------------------
E|-----------------------------------------------------------------------------------------
	(Listen to the song for the timing)

Whilst guitar1 plays this, Guitar2 plays: chorus x2
				          Intro  x2


Outro

D|-----------------------------------
A|-14-6-13-14------------------------
E|-12-4-11-12------------------------!
Comments