Bodyjar - Hazy Shade Of Winter Chords & Tabs

 

Hazy Shade Of Winter Chords & Tabs

Bodyjar Chords & Tabs

Version: 1 Type: Tab 0 ratings
1 star 2 stars 3 stars 4 stars 5 stars
comments

Hazy Shade Of Winter Tab

hazy shade of winter- bodyjar

tabber- Alex Lamberton

These are just the different parts, they get played at different times 
throughout the song so you'll have to figure out how they are
arranged yourself.

intro

--------------------------------------------------------------------
--------------------------------------------------------------------
-----------------------8--6-6----------------------------5--3-3--5--
-----6--8^9^8--6---------------8-------3--5^6^5--3------------------
-8-8--------------6-6--------------4-4--------------3-3-------------
--------------------------------------------------------------------

verse

-------------------------------
-------------------------------    
-10-10--10--10-10-10---10--10--    
-10-10--10--10-10-10---10--10-X2   
--8--8---8---8--8--8----8---8--    
-------------------------------   
 _pm_/     __pm__/       pm/

[ Tab from: http://www.guitartabs.cc/tabs/b/bodyjar/hazy_shade_of_winter_tab.html ]
----------------------------
----------------------------
-8--8---8---8--8--8----8--8-
-8--8---8---8--8--8----8--8-X2
-6--6---6---6--6--6----6--6-
----------------------------
_pm_/      __pm__/     pm/


---------------------------
---------------------------
-6--6---6---6--6--6---6--6-
-6--6---6---6--6--6---6--6-X2
-4--4---4---4--4--4---4--4-
---------------------------
_pm_/      __pm__/    pm/

-------------------------------------
-------------------------------------
-5-----------------5--8-8-8-8-8-8-8-8
-5-(let ring)------5--6-6-6-6-6-6-6-6
-3-----------------3--6-6-6-6-6-6-6-6
-------------------------------------

chorus

-------------------------------------------------------------
-------------------------------------------------------------
-10--10--X-X-X--8--8-8-X-X-X--6--6-6-X-X-X--5-5-5-X-X-X--10--
--8---8--X-X-X--8--8-8-X-X-X--6--6-6-X-X-X--5-5-5-X-X-X---8--
--8---8--X-X-X--6--6-6-X-X-X--4--4-4-X-X-X--3-3-3-X-X-X---8--
-------------------------------------------------------------

that's pretty much it, the rythym changes at the end of the last chorus
but i'm not going to tab that out it'll take way too long. It should be
100% correct, if not email me (alexlamberton@hotmail.com) with any 
suggested changes. 



Comments