Bodyjar - Hardway Chords & Tabs

 

Hardway Chords & Tabs

Bodyjar Chords & Tabs

Version: 2 Type: Bass Tab 0 ratings
1 star 2 stars 3 stars 4 stars 5 stars
comments

Hardway Bass Tab

   
FTH80:G D A E ; Generated by Fast Tab, do not erase
====================
>From            : Matt.Fritz
Artist          : BodyJar
Bass Performance: Hardway
Strings: E ,A ,D ,G 
Symbols explanations:
 r:rest



Intro:(guitars and bass play the first 2 notes together then just guitars for a bit)
G -------------------------------------------------------------------------------
D -------------------------------------------------------------------------------
A --7--7-----------------7--7--7--7--7--7--7--7--------------------------4--4--4-
E -----------2--5--4--5--------------------------5--5--5--5--5--5--5--5----------
         r                                                                             
                           
G -------------------------------------------------------------------------------
D -------------------------------------------------------------------------------
A --4--4--4--4--4--2--2--2--2----------------------------------------------------
E -----------------------------2--2--2--2----------------------------------------
[ Tab from: http://www.guitartabs.cc/tabs/b/bodyjar/hardway_btab_ver_2.html ]
Verse 1                                                                             
G ----------------------------------------------------------------------------------
D ----------------------------------------------------------------------------------
A -----7--7--7--7--7--7--7--7--------------------------4--4--4--4--4--4--4--4--2--2-
E -----------------------------5--5--5--5--5--5--5--5-------------------------------
                                                       
G -------------------------------------------------------------------------------
D -------------------------------------------------------------------------------
A ---2--2------------------------------------------------------------------------
E ---------2--2--2--2------------------------------------------------------------

Bass Solo
G -------------------------------------------------------------------------------
D -------------------------------------------------------------------------------
A -----7--7--7--7--7--7--7--7--6--6--6--6--6--6--6--6--7--7--7--7--9--9--9--7--6-
E -------------------------------------------------------------------------------

G ---------------------------------------------------------
D -----4--2--1--------------4--2--1--------------2--2--2--2
A --6-----------2--2--2--2-----------1--1--1--1------------
E ---------------------------------------------------------

Grant play something diffrent in the second verse,and i cant work out
what he plays in the chours


Guitar solo just play the 1st verse
Comments