Bodies Of Water - Open Rhythms Chords & Tabs

 

Open Rhythms Chords & Tabs

Bodies Of Water Chords & Tabs

Version: 2 Type: Bass Tab 0 ratings
1 star 2 stars 3 stars 4 stars 5 stars
comments

Open Rhythms Bass Tab

The one that was here was completely wrong, so enjoy the right one.

Main riff:
G|--------------------------------------------------|
D|-------5-------5--3-5--------3------------2-------|
A|----------------------------------1-3--3----3-----|
E|--3--------------------1--1-------------------1---|

Break: (After "Open Rhythms...")
G|-----------------------------------|
D|-----------------------------------|
A|---3---3---3---3---3---3---3---3---|
E|-----------------------------------|
[ Tab from: http://www.guitartabs.cc/tabs/b/bodies_of_water/open_rhythms_btab_ver_2.html ]
When she starts to sing he simplifies it to something like:
G|--------------------------------------------------|
D|--------------------------------------------------|
A|--------------------------------------3--3--3-----|
E|--3--------------------1-----------------------1--|

Variation:        ("from behind the leaves")
G|----------------------------------------------------------------|
D|----------------------------------------------------------------|
A|--------------------------------------3--3--3--5--6-------------|
E|--3--------------------1-------------------------------1----3---|
Comments