Bodeans - Good Things Chords & Tabs

 

Good Things Chords & Tabs

Bodeans Chords & Tabs

Version: 2 Type: Tab 0 ratings
1 star 2 stars 3 stars 4 stars 5 stars
comments

Good Things Tab

   
Good Things
By 
BoDeans

(Intro)Play as 16th Notes

E-----------------------------------------------------------------------------
B-----------------------------------------------------------------------------
G-----------------------------------------------------------------------------
D-----------9-9-9-9---------9-9-9-9---------7-7-7-7---------9-9-7-7-----------
A--7-7-7-7----------7-7-7-7---------7-7-7-7---------9-9-9-9-------------------
E-----------------------------------------------------------------------------

CHORD FORMATIONS:
-----------------
E   x 2 2 4 5 0 (Intro)
E   0 2 2 1 0 0 (Verses)
A   x 0 2 2 2 0
B   x x 4 4 0 2
C#m x 4 6 6 5 4

Sunlight fall down on the fields
E             A           B

Sunlight fall down over me
E             A         B

Work all day, be all that I can be  yeah-heh
E             A           B     E   A    B

Say I can say words only simple
E             A          B

Say I can say words only clear
E             A          B

But, oh, I can feel your heart is beating near.  Yeah-heh
E                   A             B       E      A    B

Haunted love is all that I feel, when you're passing by
B               C#m              A                   E
[ Tab from: http://www.guitartabs.cc/tabs/b/bodeans/good_things_tab_ver_2.html ]
Haunted love is all that I see, it's there in your eyes
B               C#m             A             B

And I say
(No Chord)

No, no, no, don't pass me over No, no, no, don't pass me by
E           A             B    E           A             B

See I can see good things for you and I
E             A               B       E

Yeah, good things for you and I
      A               B       E


Give I can give love and attention
Give I can give all time away
Only to one heart I can give today.
Be I can be man full of color
Be I can be man black or white
But only to one heart I can be tonight

Haunted love is all that I feel, when you're passing by
Haunted love is all that I see, it's there in your eyes

And I say
No, no, no, don't pass me over No, no, no, don't pass me by
See I can see good things for you and I
Yeah, good things for you and I

SOLO

(Follow the general chords of the verses)

E--0----0-----0----0----0----0----0----0------0-----0----0----0---------------
B--9----10----7----9----5----7----9----10-----7-----5----2----4---------------
G-----------------------------------------------------------------------------
D-----------------------------------------------------------------------------
A-----------------------------------------------------------------------------
E-----------------------------------------------------------------------------




Haunted love is all that I see, it's there in your eyes

And I say
No, no, no, don't pass me over No, no, no, don't pass me by
See I can see good things for you and I
Yeah, good things for you and I


Comments